Squarepusher - Iambic 9 Poetry Chords & Tabs

 

Iambic 9 Poetry Chords & Tabs

Squarepusher Chords & Tabs

Version: 1 Type: Bass Tab 0 ratings
1 star 2 stars 3 stars 4 stars 5 stars
comments

Iambic 9 Poetry Bass Tab

   
----------------------------------------------------------------------------
		       Iambic 9 Poetry - Squarepusher
----------------------------------------------------------------------------

Tabbed By : MaTT
e-mail: Sixty10@pcisys.net

Tuning: Regular

Hey, this is my first bass tab, so be as harsh as you want.

   1        &        2        &        
G||-3-----------------------------------|
D||-------------------------------------|
A||-5h----------------9h-------3h-9h---|
E||------------------------------5h-----|

   1        &        2        &        
G|-------------------------------------|
D|-0-----------------5h-----------9h---|
A|-5h-------------------------5h-------|
E|-------------------------------------|
[ Tab from: http://www.guitartabs.cc/tabs/s/squarepusher/iambic_9_poetry_btab.html ]
   1        &        2        &        
G|-7-----------------------------------|
D|-------------------------------------|
A|-5h--------------------3h------9h----|
E|-------------------3h-------5h-------|

   1        &        2        &        
G|-------------------------------7h----||
D|-4-----------------5---5h---7h------.||
A|-5h----------------5h---------------.||
E|-------------------------------------||

Add this the last time before the drums come in.

G|-----|
D|--7h-|
A|-----|
E|-----|

 h = harmonic

That's it. It just is sped up for the rest of the song.

You'll probably have to listen to the song to get the exact rhythm, since
Tom plays a little loose with it.

All you Squarepusher fans: Enjoy!

MaTT M
Comments