Squarepusher - Come On My Selector Chords & Tabs

 

Come On My Selector Chords & Tabs

Squarepusher Chords & Tabs

Version: 1 Type: Bass Tab 0 ratings
1 star 2 stars 3 stars 4 stars 5 stars
comments

Come On My Selector Bass Tab

Come On My Selector
by Squarepusher


The fill (the first one is just this second one cut short)
------------------------7-7--7----------------------------------
-------5--5-----------------------------------------------------
------------5-5-4-4-/5---------5--54---------------------------
-0--0-----------------------------------------------------------

[ Tab from: http://www.guitartabs.cc/tabs/s/squarepusher/come_on_my_selector_btab.html ]
Let the bass kick
-----------------------------------------------------7----6-----
-----2-2---x--x-----8----7-----------5-5--x---x-----------------
-------------------------------------------------/5----4----2h4-
-0-0-----x--x---/6----5----3h5-5p3-0----x---x-------------------



Add variations.  Listen to the record for the timing.  
I don't know if he's playing bass throughout the whole thing, this 
is just what's discernible from the synth parts.  It's hard to slap
this fast!
Comments