Squad Five-o - Side By Side Chords & Tabs

 

Side By Side Chords & Tabs

Squad Five-o Chords & Tabs

Version: 1 Type: Bass Tab 0 ratings
1 star 2 stars 3 stars 4 stars 5 stars
comments

Side By Side Bass Tab

Song:  Side by Side
Artist:   Squad Five-0
Album:  What I Believe
Copyright 1997 Bulletproof Records
Tabbed by Will Gorman


Verse

G---------------------------------------|
D---------------------------------------|
A-------------1--5--3-3-3-3-3-3-3-3-----|
E-1-1-1-1-------------------------------|


Chorus (part 1)

G-----------------------------------------------------|
D--------------------------------------7--8--7--------|
A-1--1--1--1--3--3--3--3--5--5--5--5-------------8----|
E-----------------------------------------------------|


Chorus (part 2)
[ Tab from: http://www.guitartabs.cc/tabs/s/squad_five_o/side_by_side_btab.html ]
G-------------------------------------------------5----5---|
D---------3----3--------5----5------7----7--3--3-----3-----|
A--1--1-----1-----3--3-----3---5--5----5-------------------|
E----------------------------------------------------------|

G--------------------------------------------------------|
D-------3----3--------5---5--3----------3-3-3-3-3-3-1----|
A-1--1----1----3--3----3------------------------------3--|
E--------------------------------------------------------|


I'm pretty sure everything is right, but hey, I've been wrong before, so
send any corrections, comments, suggestions, or large sums of cash to: 
gorman5@juno.com
Comments