Squad Five-o - Nice To Meet You Chords & Tabs

 

Nice To Meet You Chords & Tabs

Squad Five-o Chords & Tabs

Version: 1 Type: Bass Tab 0 ratings
1 star 2 stars 3 stars 4 stars 5 stars
comments

Nice To Meet You Bass Tab

PsYChoCHicK =>

SONG: "Nice To Meet You"
ARTIST: Squad Five-O
ALBUM: What I Believe
TABBED BY: Katie Piehl (mgkv15b@prodigy.com)

It starts off with the bass:

G-----------------------------------------
D-----0-32----2---2320-----0-32----2---232
A---2------33---3--------2------33---3----
E-3--------------------3------------------

Then play this 3x (same thing except the last few notes):

G-----------------------------------------
D-----0-32----2---2320-----0-32----2---3-2
A---2------33---3--------2------33---3----
E-3--------------------3------------------

Chorus (2x):

G------------------------------
D-00000-----------5---3---23232
A-------22222---3---3---3------
E------------------------------

Right into the verse again:

G-----------------------------------------
D-----0-32----2---2320-----0-32----2---3-2
A---2------33---3--------2------33---3----
E-3--------------------3------------------

G-----------------------------------------
D-----0-32----2---2320-----0-32----2---232
A---2------33---3--------2------33---3----
E-3--------------------3------------------
[ Tab from: http://www.guitartabs.cc/tabs/s/squad_five_o/nice_to_meet_you_btab.html ]
Repeat the first line, then play the chorus 2x again, then the bass solo:

G--------------------------------------
D--------------------------------------
A---2--32--35---2--32--35---2--32--35--
E-3-----------3-----------3------------

G--------------------------
D---2--32--35---2--32--35--
A-3-----------3------------
E--------------------------

G----------------------------------------
D----------------------------------------
A---2--32--35---2--32--35--55555--33333-- (Pause for guitar riff)
E-3-----------3--------------------------

Then this again:

G-----------------------------------------
D-----0-32----2---2320-----0-32----2---232
A---2------33---3--------2------33---3----
E-3--------------------3------------------

G-----------------------------------------
D-----0-32----2---2320-----0-32----2---3-2
A---2------33---3--------2------33---3----
E-3--------------------3------------------

Repeat the second line, and end on G. 


Questions? Comments? Complaints? Wanna hear
about my awesome band, Taunt??  Call your Congressman or write to
MGKV15B@PRODIGY.COM. God bless! 
Comments