Squad Five-o - Forever Young Chords & Tabs

 

Forever Young Chords & Tabs

Squad Five-o Chords & Tabs

Version: 1 Type: Bass Tab 0 ratings
1 star 2 stars 3 stars 4 stars 5 stars
comments

Forever Young Bass Tab

   SONG:        FOREVER YOUNG
   ALBUM:      FIGHT THE SYSTEM
   ARTIST:      SQUAD FIVE-O
   UPDATED:  (SPARTAC82@AOL.COM)


          Intro
G------------------------------------------
D--0--------0-0--------0-0---------0-0-----
A----3----3----3-----3-----3-----3-----3---
E------3-3-------3-3---------3-3---------3-
[ Tab from: http://www.guitartabs.cc/tabs/s/squad_five_o/forever_young_btab.html ]
          Verse- Repeat (4x)
G-----------------------------------------------------------------
D-------------2-3-5-------------------------------2-3-5-5-5-5-5-5-
A----2-3-5-3-----------2-3-5-5-3-2-0------2-3-5-3-----------------
E--3-----------------3-----------------3--------------------------

Chorus- same as intro- repeat (4x)



Any questions or comments write to (Spartac82@aol.com) 
Enjoy and God Bless!
Comments