Spunge - Roots Chords & Tabs

 

Roots Chords & Tabs

Spunge Chords & Tabs

Version: 1 Type: Tab 0 ratings
1 star 2 stars 3 stars 4 stars 5 stars
comments

Roots Tab

   
tabbed by marcus lubbock
i learnt this from the single but now i have noticed on the album 
it is longer so sorry if some is missing
Spunge ROOTS
Taken from the excellent album THE STORY SO FAR

Chords used
D   x57765/x577xx
G   355433/355xxx
B   799877/799xxx
A   577655/577xxx
| | = 1 bar

intro 
chords played by guitar 2

|D G| |D G| |D G|

e-2-2-2-2-2-2-2-2-2--
b-3-3-3-3-3-3-3-3-3--
g-2-2-2-2-2-0-0-2-2--
D-0-0-0-0-4-----0-0--
A--------------------
E--------------------
[ Tab from: http://www.guitartabs.cc/tabs/s/spunge/roots_tab.html ]
intro (bass)
g---------------------
D-0-0-2-2-4-4-5-5-----
A---------------------
E---------------------

verse guitar down strokes (clean) guitar 2 up strokes (distorion)

|D G| |D G| |D G| |D G|

pre chrous (the little riffs played by guitar 1 are just
the top end of the BAR chords not power chords)

|B| |A| |G| |D|

Chrous

|D| |G|x3 last ending |A|

Bridge

|D| |G|x3 last ending |A|

g---------------------
D-0-0-2-2-4-4-5-5-----
A---------------------
E---------------------
pre chrous 

|B| |A| |G| |D|

Chrous

|D| |G|x3 last ending |A|
Comments