Spunge - Room For Abuse Chords & Tabs

 

Room For Abuse Chords & Tabs

Spunge Chords & Tabs

Version: 1 Type: Tab 0 ratings
1 star 2 stars 3 stars 4 stars 5 stars
comments

Room For Abuse Tab

   
----------------------------------------------------------------------------
           	     Room for Abuse - Spunge
----------------------------------------------------------------------------

By:Carl Barton
Standard Tuning

Intro: (very light)

    D   A
e|--5---5-----|
B|--7---5-----|
G|--7---6-----|   X 2
D|--7---7-----|
A|--5---7-----|
E|--5---5-----|

Verse: (Staccato effect)

    A    C#   F#   D
e|--5-5--4-4--2-2--5---|
B|--5-5--6-6--2-2--7---|
G|--6-6--6-6--3-3--7---|
D|--7-7--6-6--4-4--7---|
A|--7-7--4-4--4-4--5---|
E|--5-5--4-4--2-2--5---|
[ Tab from: http://www.guitartabs.cc/tabs/s/spunge/room_for_abuse_tab.html ]
Chorus: (Very fast strumming)
    A      C#     F#     E      D      C#     B     E
e|--55555--44444--22222--77777--55555--44444--22222--77777----------------|
B|--55555--66666--22222--99999--77777--66666--44444--99999----------------|
G|--66666--66666--33333--99999--77777--66666--44444--99999----------------|
D|--77777--66666--44444--99999--77777--66666--44444--99999----------------|
A|--77777--44444--44444--77777--55555--44444--22222--77777----------------|
E|--55555--44444--22222--77777--55555--44444--22222--77777----------------|

Thats it. Fairly easy as long as you can keep up with it.

===============================================================================
Comments