Spunge - Olivers Army Cover Costello Elvis Chords & Tabs

 

Olivers Army Cover Costello Elvis Chords & Tabs

Spunge Chords & Tabs

Version: 1 Type: Tab 0 ratings
1 star 2 stars 3 stars 4 stars 5 stars
comments

Olivers Army Cover Costello Elvis Tab

   
Title : Oliver's Army (Cover Costello Elvis)
Album : That Should Cover It
Band : [Spunge]
Tabber : m45-Hyperon

This is my first tab so...it is not very good i know, maybe you'll get confusing reading it...........
Anyway i think the tab is quite accurate, about 95%.....
This song is quite good actually but i can't find any tabs for it, so i tabbed it.
It isnt hard but fun to play, i find this song quite interesting.
Oh an easy song for beginners too~
Enough BS lets move on. =)

Chords
C5----x355xx
F5----133xxx
G5----355xxx
E5----022xxx
A5----577xxx
D5----x577xx
F#5---244xxx
G#5---466xxx
C#5---x466xx
A#5---688xxx
D#5---x688xx

whole song layout (figure out the pattern yourself, its easy =p)

Intro  X2  
( C5 , F5, G5 )
Don't start me talking; I could talk all night.
| x---| x-x-|
| x---| x-x-|
| 5---| x-x-|
| 5---| 3-5-|
| 3---| 3-5-|
| x---| 1-3-|

Verse    0: 11
( C5 , F5 , G5 , C5 , F5 , E5 , A5 , D5 ) 
My mind goes sleepwalking while I'm putting the world to right.
Called careers information.  Have you got yourself an occupation?
| x---| x-x-| x---| x-x-| x-x-| x-x-|
| x---| x-x-| x---| x-x-| x-x-| x-x-|
| 5---| x-x-| 5---| x-x-| x-7-| x-7-|
| 5---| 3-5-| 5---| 3-2-| 7-7-| 7-7-|
| 3---| 3-5-| 3---| 3-2-| 7-5-| 7-5-|
| x---| 1-3-| x---| 1-0-| 5-x-| 5-x-|
pm......................|

Chorus         0:29
( C5 , F5 , G5 , C5 , F5 , G5 ) 
Oliver's Army is here to stay  Oliver's Army are on their way.
And I would rather be anywhere else but here today.
| x---| x-x-| x---| x-x-| ---------------------------------------------------------------
| x---| x-x-| x---| x-x-| ---------------------------------------------------------------
| 5---| x-x-| 5---| x-x-| ---------------------------------------------------------------
| 5---| 3-5-| 5---| 3-5-| ---------------------------------------------------------------
| 3---| 3-5-| 3---| 3-5-| 3-3-3-3-2-2-2-2------------------------------------------------
| x---| 1-3-| x---| 1-3-| ----------------5-5-5-5-3-3-3-3-1-1-1-1-1-1-1-1-3-3-3-3--------
                          pm............................................................. 

Play intro once here   0:41
( C5 , F5, G5 )
| x---| x-x-|
| x---| x-x-|
| 5---| x-x-|
| 5---| 3-5-|
| 3---| 3-5-|
| x---| 1-3-|

Verse again       0:47
( C5 , F5 , G5 , C5 , F5 , E5 , A5 , D5 ) 
There was a checkpoint Charlie, he didn't crack a smile.
But it's no laughing party when you've been on the murder mile.
Only takes one itchy trigger, one more widow one less white nigger.
| x---| x-x-| x---| x-x-| x-x-| x-x-|
| x---| x-x-| x---| x-x-| x-x-| x-x-|
| 5---| x-x-| 5---| x-x-| x-7-| x-7-|
| 5---| 3-5-| 5---| 3-2-| 7-7-| 7-7-|
| 3---| 3-5-| 3---| 3-2-| 7-5-| 7-5-|
| x---| 1-3-| x---| 1-0-| 5-x-| 5-x-|
pm......................|
[ Tab from: http://www.guitartabs.cc/tabs/s/spunge/olivers_army_cover_costello_elvis_tab.html ]
Chorus again          1:04
( C5 , F5 , G5 , C5 , F5 , G5 ) 
Oliver's Army is here to stay  Oliver's Army are on their way.
And I would rather be anywhere else but here today.
| x---| x-x-| x---| x-x-| ------------------------------------------------------------
| x---| x-x-| x---| x-x-| ------------------------------------------------------------
| 5---| x-x-| 5---| x-x-| ------------------------------------------------------------
| 5---| 3-5-| 5---| 3-5-| ------------------------------------------------------------
| 3---| 3-5-| 3---| 3-5-| 3-3-3-3-2-2-2-2---------------------------------------------
| x---| 1-3-| x---| 1-3-| ----------------5-5-5-5-3-3-3-3-1-1-1-1-1-1-1-1-3-3-3-3-----
                         pm..........................................................

Play intro again here        1:16
( C5 , F5, G5 )
| x---| x-x-|
| x---| x-x-|
| 5---| x-x-|
| 5---| 3-5-|
| 3---| 3-5-|
| x---| 1-3-|

Bridge           1:21
(A#5 , G#5 , F#5 , G#5 , D#5 , G#5 , F#5 , G#5 , F#5 , G#5 )
 Hong Kong is up for grabs;  London is full of Arabs.
We could be in Palestine, overrun by the Chinese line
with the boys from the Mersey and the Thames and the Tyne.
| x---| x---| x---| x---| x---| x---| x---| x---| x---| x------------------|
| x---| x---| x---| x---| x---| x---| x---| x---| x---| x------------------|
| x---| x---| x---| x---| 8---| x---| x---| x---| x---| x------------------|
| 8---| 6---| 4---| 6---| 8---| 6---| 4---| 6---| 4---| 6------------------|
| 8---| 6---| 4---| 6---| 6---| 6---| 4---| 6---| 4---| 6------------------|
| 6---| 4---| 2---| 4---| x---| 4---| 2---| 4---| 2---| 4------------------|
                                                         pm..................

Verse 2          1:38
( C#5 , F#5 , G#5 , C#5 , F#5 , E#5 , A#5 , D#5 ) 
But there's no danger.  It's a professional career,
though it could be arranged with just a word in Mr. Churchill's ear.
If you're out of luck you're out of work.
We could send you to Johannesburg.
| x---| x-x-| x---| x-x-| x-x-| x-x-|
| x---| x-x-| x---| x-x-| x-x-| x-x-|
| 6---| x-x-| 6---| x-x-| x-8-| x-8-|
| 6---| 4-6-| 6---| 4-3-| 8-8-| 8-8-|
| 4---| 4-6-| 4---| 4-3-| 8-6-| 8-6-|
| x---| 2-4-| x---| 2-1-| 6-x-| 6-x-|
pm......................|

Chorus 2           1:55
( C#5 , F#5, G#5 )
Oliver's Army is here to stay  Oliver's Army are on their way.
And I would rather be anywhere else but here today.
| x---| x-x-| x---| x-x-| -----------------------------------------------------------------
| x---| x-x-| x---| x-x-| -----------------------------------------------------------------
| 6---| x-x-| 6---| x-x-| -----------------------------------------------------------------
| 6---| 4-6-| 6---| 4-6-| -----------------------------------------------------------------
| 4---| 4-6-| 4---| 4-6-| 4-4-4-4-3-3-3-3--------------------------------------------------
| x---| 2-4-| x---| 2-4-| ----------------6-6-6-6-4-4-4-4-2-2-2-2-2-2-2-2-4-4-4-4----------
                         pm......................................................(PM Part  X3)

Ending    2:19    X4
( C#5 , F#5, G#5 )  End on C#5
Oh oh oh oh......
| x---| x-x-|
| x---| x-x-|
| 6---| x-x-|
| 6---| 4-6-|
| 4---| 4-6-|
| x---| 2-4-|

Got Questions ? Want to Flame me or say thanks? 
Feel free to e-mail me : goodennis@hotmail.com
ENJOY!
Comments