Spunge - Ode To Slimy Bassless Chords & Tabs

 

Ode To Slimy Bassless Chords & Tabs

Spunge Chords & Tabs

Version: 1 Type: Tab 0 ratings
1 star 2 stars 3 stars 4 stars 5 stars
comments

Ode To Slimy Bassless Tab

		 ____                                       ____ 
		|   _|.-----.-----.--.--.-----.-----.-----.|_   |
		|  |  |__ --|  _  |  |  |     |  _  |  -__|© |  |
		|  |_ |_____|   __|_____|__|__|___  |_____| _|  |
		|____|      |__|              |_____|      |____|

			     Ode to Slimy Bassless

		  Tabbed by: Tom Leech (blokeyman@hotmail.com)

All me [spunge] tabs made in guitar pro, so timing is written down, kinda :)
If anyone wants the guitar pro files, or midi's of the songs, email me.

Corrections, comments, tab requests: blokeyman@hotmail.com

Intro:
E--------------0-----------|--------------0-----------|
B-----------------0--------|-----------------0--------|
G-----------1--------1-----|--------2--------------2--|
D--------2--------------2--|-----------4--------4-----|
A-----2--------------------|-----4--------------------|
E--0-----------------------|--2-----------------------|
                                                                              
--------------------------|-------------------------|--------------0-----------|
--------------5-----------|--------5-------7--------|-----------------0--------|
--------4--------4-----4--|-----------6-------8-----|-----------1--------1-----|
-----------6--------6-----|----------------------9--|--------2--------------2--|
-----6--------------------|-----7-------------------|-----2--------------------|
--4-----------------------|--5----------------------|--0-----------------------|
                                                                       
-----------------0--------|------------------------|------------------|
--------------------0-----|-----------5------------|------------------|
--------2--------------2--|----------------4-------|--6--6------8--8--|
-----------4--4-----------|--------6----------6----|--7--7------9--9--|
-----4--------------------|-----6------------------|--7--7------9--9--|
--2-----------------------|--4---------------------|--5--5------7--7--|

Verse:
e--x--x--x--x--x--x--x--x--|--x--x--x--x----x----x-|--x--x--x--x--x--x--x--x--|--x--x--x--x----x----x-|
B--x--x--x--x--x--x--x--x--|--x--x--x--x----x----x-|--x--x--x--x--x--x--x--x--|--x--x--x--x----x----x-|
G--x--9--x--9--x--9--x--9--|--x--8--x--8----8----8-|--x--7--x--7--x--7--x--7--|--x--6--x--6----6----6-|
D--x--9--x--9--x--9--x--9--|--x--9--x--9----9----9-|--x--7--x--7--x--7--x--7--|--x--7--x--7----7----7-|
A--x--7--x--7--x--7--x--7--|--x--9--x--9----9----9-|--x--5--x--5--x--5--x--5--|--x--7--x--7----7----7-|
E--x--7--x--7--x--7--x--7--|--x--7--x--7----7----7-|--x--5--x--5--x--5--x--5--|--x--5--x--5----5----5-|
[ Tab from: http://www.guitartabs.cc/tabs/s/spunge/ode_to_slimy_bassless_tab.html ]
Distorted riff during verse:
e--------------------------|----------------------|-------------------------|
B--------------------------|----------------------|-------------------------|
G-----9--9--9--7-----------|----------------------|----7--7--7--5-----------|
D-----------------9--7--9--|----9----9----9----9--|----------------7--5--7--|
A--------------------------|----------------------|-------------------------|
E--------------------------|----------------------|-------------------------|

-------------------|-------------------------|----------------------|
-------------------|-------------------------|----------------------|
--5----------------|----9--9--9--7-----------|----------------------|
-----7--5--7----7--|----------------9--7--9--|----9----9----9----9--|
-------------------|-------------------------|----------------------|
-------------------|-------------------------|----------------------|

Chorus:
e---0----x--x----x--x--x--|----x----x--x-----------|
B---0----x--0----0--x--5--|----5----x--x-----------|
G---1----x--2----2--x--4--|----4----x--6--6--8-----|
D---2----x--4----4--x--6--|----6----x--7--7--9-----|
A---2----x--4----4--x--6--|----6----x--7--7--9-----|
E---0----x--2----2--x--4--|----4----x--5--5--7-----|


Order:

Intro
Verse x4
Chorus x4
Verse x4
Chorus x4
Intro
Verse x4
Chorus x8
Finish on the E chord


Lyrics:

You've got your Volvo and your little mortgage.
All your things of value they're all wrapped up in storage.
You've got 2.4 children named Dick and Jane,
They look like Ken and Barbie and you dress them both the same.
You've got a dog named Rover, cat named Moggy,
You're wife wont let you in the car if it gets a little foggy.
I dont wanna be the one to say that you got boring,
But you walk you dog at 6:30am every morning.

This is an ode to slimy bassless, guy who for now who should remain nameless.
But you could have been here with us, could have been on the trip, yeah.
Traded in your ticket for a pair of carpet slippers.

Your in the same job till the day that you retire,
You happy just to sit home, your feet up by the fire.
It's OK to spend all of your fridays down the pub,
But you should have drawn the line at joining the caravan club,
You'd rather stay home and watch T.V. than come out and socialise with little ol' me.
I dont wanna be the one to say that you got boring,
But when you start talking people start yawning.

This is an ode to slimy bassless, guy who for now who should remain nameless.
But you could have been here with us, could have been on the trip, yeah.
But you traded in your ticket for a pair of carpet slippers.

This is an ode to slimy bassless, a guy who for now who should remain nameless.

Wash and clean your car out every single sunday morning,
Still enjoy surprises, you just need alot of warning,
Go and play your golf game and improve your handicap,
Then you sit down for a hearty meal then lie down for a nap.
Think you're wifes at bingo but she's here with me instead,
You wouldnt misunderstand her if you just listened to what she said.
I dont wanna be the one to say that you got boring,
But you live and work and probably die in the same town you were born in.

This is an ode to slimy bassless, guy who for now who should remain nameless.
But you could have been here with us, could have been on the trip, yeah.
Traded in your ticket for a pair of carpet slippers.
This is an ode to slimy bassless, guy who for now who should remain nameless.
Could have been here with us, could have been on the trip, yeah.
Traded in your ticket for a pair of carpet slippers.
Comments