Spunge - No Woman No Cry Chords & Tabs

 

No Woman No Cry Chords & Tabs

Spunge Chords & Tabs

Version: 2 Type: Tab 0 ratings
1 star 2 stars 3 stars 4 stars 5 stars
comments

No Woman No Cry Tab

   
[Spunge]- No Woman No Cry-
 tabbed by Merlin Blencowe

The intro, played twice, the bass comes in the second time and continues
pretty much the same throughout the song, but you could jazz it up a bit
if you wanted.

INTRO
---------------------------------------------------------------------------
---------------------------------------------------------------------------
-----5---------------------------------------------------------------------
-----5-----------5--------------------2---------3---3---2---2-p-0----------
-3---------------5-----0-h-3-p-0-------------------------------------3-etc-
--------1-/-3--------------------------------------------------------------
C	         G		   Am          F        C       G7   C etc

BASS
---------------------------------------------------------------------------
------------------3---3---2---2--------------------------------------------
-----------------------------------------------3-----------------------0---
------------------------------------------------------------3--------------

The ska bit, work out your own strum pattern (most [Spunge] patterns involve
a lot of up stroaking to get that bouncy feel)
-----------------------------------------------------------
---3-------------------------------------------------------
---5------------4-----------5-------------2------4---------
---5------------5-----------7-------------3------5---------
---3------------5-----------7-------------3------5---------
----------------3-----------5-------------1------3---------
   C	        G	    Am	          F      G
[ Tab from: http://www.guitartabs.cc/tabs/s/spunge/no_woman_no_cry_tab_ver_2.html ]
The solo:(Ok, it's not perfect, but it's as close as I can get,
and it seems to be the only version on the net so there.)

---------------------------------------------------------------------------
---------------------------------------------------------------------------
-------------------------------------------------3-------------------------
-------------1-2-3--5\---0--------------3--5----5-3------------------------
--------3-5------------------3---5-3-5---------------5-3--5\---0-----------
-3-/-5----------------------------------------------------------------3----

-----------------------------------------------------------------------------
-----------------------------------------------------------------------------
-----------------------------------------------------------------------------
----------------------------------------------------1-2-3\---0---------------
-5-3-5--5\---0-3-0--------------------------3-5--------------3----3-0-3------
----------------------3-0-3--5\---0---/3--5----------------------------------

--------------------------------------------------------------
--------------------------------------------------------------
------2------------------------------------------------------
-2-2---5-2---------------------2-0---------------------------
-------------7\---0-3---5-3-5------3-2--3-2-3-2-3\----------
---------------------------------------------------------3---

------------------------------------------------------------------------------
------------------------------------------------------------------------------
------------------------------------------------------------------------------
-2-/-5---2-/-5---2-/-5---2-0-------------------1-2-3\---0---------------------
---------------------------------0-/-3------3-5---------------3---------------
----------------------------------------3-5-----------------------------------
Comments