Spunge - Land Down Under Chords & Tabs

 

Land Down Under Chords & Tabs

Spunge Chords & Tabs

Version: 2 Type: Bass Tab

Land Down Under Bass Tab

   
Band: [spunge]
Song: Land Down Under
Standard tuning: GDAE

This is a corrected version of the Land down under bass tab I made as there
was a bit of bass at the end that I couldn't hear but I just figured it out

Intro/Verse/Bridge/Solo1 (x6)
G|--------------------------|
D|--------------------5---7-|
A|----9----7-----9----------|
E|-777-7-55-5-777-7-3---5---|
[ Tab from: http://www.guitartabs.cc/tabs/s/spunge/land_down_under_btab_ver_2.html ]
Chorus/Solo2 (x4)
G|------------------------------|
D|------------------------------|
A|-555555-----------------------|
E|--------555555-777777-xx3-xx5-|

Intro/Verse/Bridge/Solo1 (x6)
Chorus/Solo2 (x4)
Intro/Verse/Bridge/Solo1 (x4)
Chorus/Solo2 (x2)
Intro/Verse/Bridge/Solo1 (x4)
Chorus/Solo2 (x8)

Final Chorus (x4)
G|---------------------------------|
D|---4-5-7-------------------------|
A|-5---------4-5-7---6-7-9---------|
E|---------5-------7-------xx3-xx5-|

End with:
G|------|
D|------|
A|------|
E|-xx7~-|