Spunge - Jump On Demend Chords & Tabs

 

Jump On Demend Chords & Tabs

Spunge Chords & Tabs

Version: 1 Type: Tab 0 ratings
1 star 2 stars 3 stars 4 stars 5 stars
comments

Jump On Demend Tab

tabbed by marcus lubbock
spunge jump on demend
E---------------------------------
B---------------------------------
G---------------------------------
D--7--6--4--2-----0-4-0--2-6-2----
A--7--6--4--2-X3--0-4-0--2-6-2----
D--7--6--4--2-----0-4-0--2-6-2----

verse
E---------------------------------------------------
B-----10----10----10----10----7-----7-----9-----9---
G-----9-----9-----9-----9-----7-----7-----9-----9---
D--7-----7-----7-----7------------------------------
A--------------------------5-----5-----7-----7------
D---------------------------------------------------

chorus
E------------------------------
B------------------------------
G--2-2-2--2-2-2--7-7-7--9-9-9--
D--2-2-2--2-2-2--7-7-7--9-9-9--
A--0-0-0--0-0-0--5-5-5--7-7-7--
D------------------------------
[ Tab from: http://www.guitartabs.cc/tabs/s/spunge/jump_on_demend_tab.html ]
other bit (slightly palm muted)
E---------------------------------
B---------------------------------
G-----------------------------4---
D-----------------7-7-6-6-4-4-2---
A--7-7-6-6-4-4-2--5-5-4-4-2-2-----
D--7-7-6-6-4-4-2------------------

solo (rythem guitar plays verse chords)
E------------------------------------------------------
B------------------------------------------------------
G---6h7-9-7-6-7-6h7p6h7p6h7p6--------------------------
D-7---------------------------7-7-7--7-----7-----7--9--
A--------------------------------------7h9---7h9-------
D------------------------------------------------------

E----------------------------------------------------------------
B-----------7-------------------------------------7--------------
G-6h7p6-7-9---9-7-6h7p6-------6h7-9-9-9-9-9-9-9-9---9-7p6--------
D-----------------------9-7-9-----------------------------9-7h9--
A----------------------------------------------------------------
D----------------------------------------------------------------
the last few notes might be a bit off because
there hard to hear but thats the best anyone could do
i think. the rest is definetly right!


Comments