Spunge - Jump On Demand Chords & Tabs

 

Jump On Demand Chords & Tabs

Spunge Chords & Tabs

Version: 2 Type: Bass Tab

Jump On Demand Bass Tab

Band: [spunge]
Song: Jump On Demand
Album: the story so far
Tabbed by: Skish

Intro
G:----------------------------------------------------------|
D:---4---6---------------------------4---6------------------|
A:--5-5-7-7----444455557777----4444-5-5-7-7-----------------|x1
E:---------5555------------5555-------------55-555-555-5555-|

Verse 1
G:------------------|  |--------------------|
D:------------------|  |-----------4h7--6h9-|
A:---------55-57545-|x4|---45754-55---77----|x4
E:-55-555-5---------|  |-55-----5-----------|

Chorus
G:------------------|  |------------------|  |------------------|
D:------------------|  |------------------|  |------------------|
A:---------555-777--|x4|---------5544227--|x4|------------------|x1
E:-555-555----------|  |-5544220----------|  |--55-555-555-5555-|
[ Tab from: http://www.guitartabs.cc/tabs/s/spunge/jump_on_demand_btab_ver_2.html ]
Verse 2
G:------------------|  |--------------------|
D:------------------|  |-----------4h7--6h9-|
A:---------55-57545-|x4|---45754-55---77----|x4
E:-55-555-5---------|  |-55-----5-----------|

Chorus
G:------------------|  |------------------|  |------------------|
D:------------------|  |------------------|  |------------------|
A:---------555-777--|x4|---------5544227--|x4|------------------|x1
E:-555-555----------|  |-5544220----------|  |--55-555-555-5555-|

Bridge
G:------------------|  |--------------------|
D:------------------|  |-----------4h7--6h9-|
A:---------55-57545-|x4|---45754-55---77----|x4
E:-55-555-5---------|  |-55-----5-----------|

G:------------------|  |----------------------------------|
D:------------------|  |----------------------------------|
A:---------555-777--|x4|-----------------555-444-222-777--|x2
E:-555-555----------|  |-555-444-222-000------------------|

Chorus
G:------------------|  |--------------------|  |--------------------|
D:------------------|  |-----------4h7--6h9-|  |--------------------|
A:---------555-777--|x4|---45754-55---77----|x4|--------------------|x1
E:-555-555----------|  |-55-----5-----------|  |--55-555-555-5555/1-|