Spunge - Jump On Demand Chords & Tabs

 

Jump On Demand Chords & Tabs

Spunge Chords & Tabs

Version: 1 Type: Bass Tab 0 ratings
1 star 2 stars 3 stars 4 stars 5 stars
comments

Jump On Demand Bass Tab

Artist - Spunge
Album - The Story So Far
Song - Jump On Demand

Tab sounds pretty right, i hope it is. Please rate!

Intro

G |------------------|------------------|------------------|
D |-----4--------6---|------------------|------------------|
A |---5---5----7---7-|--0-0-0-0-4-4-4-4-|-5-5-5-5-7-7-7-7--|
E |------------------|------------------|------------------|

G |-----------------|----------------|------------------|------------------|
D |-----------------|----4------6----|------------------|------------------|
A |-0-0-0-0-4-4-4-4-|--5---5--7---7--|------------------|------------------|
E |-----------------|----------------|--5-5-5-5-5-5-5-5-|-5-5-5-5-5-5-5-5--|

Verse

G |------------------|--------------------|       
D |------------------|--------------------|      
A |---0---0---0---0--|--5--5--5-7-5-4-5---| 
E |------------------|--------------------| x4

G |------------------|--------------------|
D |--7-7-6-6-4-6-4-2-|-----4-7-----6-9----|
A |------------------|-5-5-----7-7--------| 
E |------------------|--------------------| x4

Chorus

G |-------------------|-------------------|
D |-------------------|-------------------|
A |--0-0-0-0--0-0-0-0-|--5-5-5-5--7-7-7-7-|
E |-------------------|-------------------| x 4

Bridge

G |-------------------|-------------------|
D |-------------------|--------------2----|
A |-------------------|---5---4---2-------|
E |---5---4---2---0---|-------------------| x4

G |------------------|-------------------|
D |------------------|-------------------|
A |------------------|-------------------|
E |--5-5-5-5-5-5-5-5-|--5-5-5-5-5-5-5-5--|

Verse

G |------------------|--------------------|       
D |------------------|--------------------|      
A |---0---0---0---0--|--5--5--5-7-5-4-5---| 
E |------------------|--------------------| x4

G |------------------|--------------------|
D |--7-7-6-6-4-6-4-2-|-----4-7-----6-9----|
A |------------------|-5-5-----7-7--------| 
E |------------------|--------------------| x4
[ Tab from: http://www.guitartabs.cc/tabs/s/spunge/jump_on_demand_btab.html ]
Chorus

G |-------------------|-------------------|
D |-------------------|-------------------|
A |--0-0-0-0--0-0-0-0-|--5-5-5-5--7-7-7-7-|
E |-------------------|-------------------| x 4

Bridge

G |-------------------|-------------------|
D |-------------------|--------------2----|
A |-------------------|---5---4---2-------|
E |---5---4---2---0---|-------------------| x4

G |------------------|-------------------|
D |------------------|-------------------|
A |------------------|-------------------|
E |--5-5-5-5-5-5-5-5-|--5-5-5-5-5-5-5-5--|

Guitar Solo

G |------------------|--------------------|       
D |------------------|--------------------|      
A |---0---0---0---0--|--5--5--5-7-5-4-5---| 
E |------------------|--------------------| x4

G |------------------|--------------------|
D |--7-7-6-6-4-6-4-2-|-----4-7-----6-9----|
A |------------------|-5-5-----7-7--------| 
E |------------------|--------------------| x4

Chorus

G |-------------------|-------------------|
D |-------------------|-------------------|
A |--0-0-0-0--0-0-0-0-|--5-5-5-5--7-7-7-7-|
E |-------------------|-------------------| x 4

Bridge

G |------------------|-----------------|------------------|------------------|
D |------------------|-----------------|------------------|----------2-2-2-2-|
A |------------------|-----------------|--5-5-5-5-4-4-4-4-|--2-2-2-2---------|
E |--5-5-5-5-4-4-4-4-|-2-2-2-2-0-0-0-0-|------------------|------------------| x 2

Outro

G |-------------------|-------------------|
D |-------------------|-------------------|
A |--0-0-0-0--0-0-0-0-|--5-5-5-5--7-7-7-7-|
E |-------------------|-------------------| x 4

G |------------------|--------------------|
D |--7-7-6-6-4-6-4-2-|-----4-7-----6-9----|
A |------------------|-5-5-----7-7--------| 
E |------------------|--------------------| x4

G |------------------|----------------------|
D |------------------|----------------------|
A |------------------|----------------------|
E |--5-5-5-5-5-5-5-5-|--5-5-5-5-5-5-5-5-/-0-|
Comments