Spunge - Give It A Try Chords & Tabs

 

Give It A Try Chords & Tabs

Spunge Chords & Tabs

Version: 1 Type: Tab 0 ratings
1 star 2 stars 3 stars 4 stars 5 stars
comments

Give It A Try Tab

   
[Spunge]  -Give it a Try

INTRO
------------------------------------------this bit below is played on bass
------------3------------------------------------------------------------
-4------4-----4-------------------------4--4--5--7--5--4-----------------
-5---5-----------5--------2-----4-------5-----------------------5------7-
-----------------------3-----5------------------------------3-------5----
-------------------------------------------------------------------------
G

Verse Chords:
-3--3--3--3----3--3-/-5--5-------------------------------------------------
-3--3--3--3----5--5-/-7--7-------------------------------------------------
-4--4--4--4----5--5-/-7--7-------------------------------------------------
-5--5--5--5----5--5-/-7--7-------------------------------------------------
-5--5--5--5----3--3-/-5--5-------------------------------------------------
---------------------------------------------------------------------------
 G	       C      D

G
I know, you don't really know me
C	              D	
But you, would if you knew me
G			 C / D
Come on upand give it a try
[ Tab from: http://www.guitartabs.cc/tabs/s/spunge/give_it_a_try_tab.html ]
CHORUS
----------------------------------------------------------------------
------------------------------------------------------------continued>
----------------------------------------------------------------------
10--10--10--10--10--10-\-5--5--5--5--5--5--5--5--5--5--5--5-/---------
10--10--10--10--10--10-\-5--5--3--5--5--3--5--5--5--5--5--5-/---------
8---8----8---8---8---8-\-3--3-----3--3-----3--3--3--3--3--3-/---------
So if you wanna come     over come on come on if you don't then you
 
--------------------------------------------------------------------------
--------------------------------------------------------------------------
----------------------------------------------------------------continued>
10--10--10--10--10--10--10-\-5--5--5--5--5--5--5-/-10--10--10--10---------
10--10--10--10--10--10--10-\-5--5--5--5--5--5--5-/-10--10--10--10---------
8---8---8---8---8---8----8-\-3--3--3--3--3--3--3-/-8----8---8---8---------
might as well just stay at    home if you're still askin why   just  

-------------------------------------------------------------------
-------------------------------------------------------------------
-------------------------------------------------------------------
-10--10--10-/-12------------12--12----10----9----7-----------------
-10--10--10-/-12-let ring---12--12----10----9----7-----------------
--8---8---8-/-10------------10--10-----8----7----5-----------------
give it a   try

SOLO: Improvise around the G minor pentatonic
Comments