Spunge - Ghostbusters Chords & Tabs

 

Ghostbusters Chords & Tabs

Spunge Chords & Tabs

Version: 1 Type: Tab

Ghostbusters Tab

Band: Spunge
Song: Ghostbusters
Tabbed by: Skish

Intro(Starts at 0:04)
G:--------------------------------------------|
D:--------------------------------------------|
A:-14~--10~--9~--8~--7~--5~-------------------|x1
E:---------------------------5~~~-------------|

G:----------------------------------|
D:-----9-9-----7--------------------|
A:---7--7--5-5---5-----9-9-----7----|x4
E:-------------------7--7--5-5---5--|

Verse 1
G:----------------------------------|
D:-----9-9-----7--------------------|
A:---7--7--5-5---5-----9-9-----7----|x4
E:-------------------7--7--5-5---5--|

G:------------------------------------------------------------------|
D:------------------------------------------------------------------|
A:------------------------------------------------------------------|x2
E:-7~~~--------5~~~----------------3~~~~--------0~~~----------------|

G:----------------------------------|
D:-----9-9-----7--------------------|
A:---7--7--5-5---5-----9-9-----7----|x2
E:-------------------7--7--5-5---5--|

Verse 2
G:----------------------------------|
D:-----9-9-----7--------------------|
A:---7--7--5-5---5-----9-9-----7----|x4
E:-------------------7--7--5-5---5--|
[ Tab from: http://www.guitartabs.cc/tabs/s/spunge/ghostbusters_tab.html ]
G:------------------------------------------------------------------|
D:------------------------------------------------------------------|
A:------------------------------------------------------------------|x2
E:-7~~~--------5~~~----------------3~~~~--------0~~~----------------|

G:----------------------------------|
D:-----9-9-----7--------------------|
A:---7--7--5-5---5-----9-9-----7----|x2
E:-------------------7--7--5-5---5--|

Verse 3
G:----------------------------------|
D:-----9-9-----7--------------------|
A:---7--7--5-5---5-----9-9-----7----|x4
E:-------------------7--7--5-5---5--|

G:------------------|
D:------------------|
A:------------------|x4
E:-55~~-------------|

G:----------------------------------|
D:-----9-9-----7--------------------|
A:---7--7--5-5---5-----9-9-----7----|x3
E:-------------------7--7--5-5---5--|

G:------------------------------------------|
D:-----9-9-----7----------------------------|
A:---7--7--5-5---5-----9-9-----7---7~~~-----|x2
E:-------------------7--7--5-5---5----------|

Outtro
G:------------------|  |----------------------|
D:------------------|  |----------------------|
A:------------------|x3|----------------------|x1
E:-7777555577775555-|  |-77775555777755557~---|