Spunge - Friend Called Fred Chords & Tabs

 

Friend Called Fred Chords & Tabs

Spunge Chords & Tabs

Version: 2 Type: Tab 0 ratings
1 star 2 stars 3 stars 4 stars 5 stars
comments

Friend Called Fred Tab

   
Tabbed by marcus lubbock
Spunge friend called fred
taken from THE STORY SO FAR (excellent album)
Chord used
e      x79997
a      577655
d      x57775
f#m    x91111109/244322
| | = 1bar

intro

|e| |a| x3 last time |e| |a| |d| |a|
verse  guitar 1 normal strokes (clean)
guitar 2 just upstrokes (distrion)

|e| |a| x3 last time  |e| |a| |d| |a|

chorus
|a| |e| |f#m| |d|

verse
|e| |a| x3 last time  |e| |a| |d| |a|

chorus
|a| |e| |f#m| |d|
[ Tab from: http://www.guitartabs.cc/tabs/s/spunge/friend_called_fred_tab_ver_2.html ]
solo
e--9-9-9-7-7-7-9-9-10-10-10-9-9-9-7-7-5-5-5-7-7-7-4-4----|
b--------------------------------------------------------|
g--------------------------------------------------------|
D--------------------------------------------------------|
A--------------------------------------------------------|
E--------------------------------------------------------|
This part is correct but not in this rhythem i let you work it out
e-9-9-11-12-9-9-11-12-9-9-11-12-8-8-8---------|
b---------------------------------------------|
g---------------------------------------------|
D---------------------------------------------|
A---------------------------------------------|
E---------------------------------------------|

e-9-9-11-12-9-9-11-12-9-9-11-12-8-------------|
b---------------------------------9^----------|
g---------------------------------------------|
D---------------------------------------------|
A---------------------------------------------|
E---------------------------------------------|

verse
|e| |a| x3 last time  |e| |a| |d| |a|

chorus
|a| |e| |f#m| |d|

enjoy! (much more spunge coming your way)
Comments