Spunge - Ego Chords & Tabs

 

Ego Chords & Tabs

Spunge Chords & Tabs

Version: 3 Type: Tab 0 ratings
1 star 2 stars 3 stars 4 stars 5 stars
comments

Ego Tab

This is the only [spunge] song that I've heard and actually liked so
I thought I should put it up.  pretty simple song really, basically using
the same chords throughout most of it and just a couple of power chords.
enjoy

Intro 
|-----2---------2---------4---------2----- 
|-------2---------4---------6---------4--- 
|---3-----3---4-----4---6-----6---4-----4- 
|----------------------------------------- 
|----------------------------------------- 
|----------------------------------------- 
[ Tab from: http://www.guitartabs.cc/tabs/s/spunge/ego_tab_ver_3.html ]
Verse
|---2-x-2-x-2-x-2-x-4-x-4-x-2-x-2- 
|---2-x-2-x-4-x-4-x-6-x-6-x-4-x-4- 
|---3-x-3-x-4-x-4-x-6-x-6-x-4-x-4-
|--------------------------------- 
|--------------------------------- 
|--------------------------------- 

|---2-2-2-2-2-2-2-2-4-4-4-4-2-2-2-2- 
|---2-2-2-2-4-4-4-4-6-6-6-6-4-4-4-4- 
|---3-3-3-3-4-4-4-4-6-6-6-6-4-4-4-4- 
|----------------------------------- 
|-----------------------------------
|----------------------------------- 

Chorus
|------------------------ 
|------------------------ 
|-------4--4--6--6--4--4- 
|-4--4--4--4--6--6--4--4- 
|-4--4--2--2--4--4--2--2-
|-2--2------------------- 

Outro 
|-----2-------2-------4-------2--- 
|-------2-------4-------6-------4- 
|--/3----- /4------/6------/4----- 
|--------------------------------- 
|--------------------------------- 
|---------------------------------
Comments