Spunge - Ego Chords & Tabs

 

Ego Chords & Tabs

Spunge Chords & Tabs

Version: 1 Type: Tab 0 ratings
1 star 2 stars 3 stars 4 stars 5 stars
comments

Ego Tab

**************
/\/\/\/\/\/\/\
##############
[Spunge] - Ego
##############
\/\/\/\/\/\/\/
**************
tabbed by Jack=)

as far as i know this is one of the only tabs for this song
on the net at the moment. it took me ages to work out so dont
nick please=)jack - deakin_316@hotmail.com send your comments
to me, i want to know what people think of my work=)


INTRO
The chords are the chords that go in the background on the
new version of EGO on the story so far.

e|----------------------------------
B|----------------------------------
G|---------4-----6---4----------
D|---4-----4-----6---4-------------
A|---4-----2-----4---2---------
E|---2------------------------------

this is the fiddly guitar part intro for ego

e|----2----------7----------9----------7---------------------
B|-------2----4-----7--4--6----9-6-4-----7--4-----------------
G|-3-------3--------------------------------------------------
D|------------------------------------------------------------
A|------------------------------------------------------------
E|------------------------------------------------------------
[ Tab from: http://www.guitartabs.cc/tabs/s/spunge/ego_tab.html ]
e|---2------------7---------9------7--------7------------------
B|------2-----4-----7--4-6----9-6----7--4-----------------------
G|3--------3--------------------------------------------------
D|------------------------------------------------------------
A|------------------------------------------------------------
E|------------------------------------------------------------


VERSE (SKA STROKES & CLEAN)
-im not sure how to show this but this is the chord order, 
work out the timing etc yourself, its really easy, just listen
of the song

E|--2---7---9----7------------------
B|--2---7---9----7------------------
G|--3---8---10---8------------------
D|--4---9---11---9------------------
A|----------------------------------
E|----------------------------------


CHORUS (DISTORTED)

E|----------------------------
B|----------------------------
G|----------------------------
D|---4-----9-----11----9------
A|---4-----9-----11----9------
E|---2-----7-----9-----7------


Outro - i think you miss out almost every 3rd note from the 
intro fiddly guitar bit, but im not sure. 


anyway peeps, have and get all your mates to skank along 
to you playin a cool song=)

Jack - deakin_316@hotmail.com


Comments