Spunge - Ego Chords & Tabs

 

Ego Chords & Tabs

Spunge Chords & Tabs

Version: 2 Type: Bass Tab

Ego Bass Tab

Artist: [Spunge]
Song: Ego
Album: Room for abuse and The story so far
Tabbed by: skish

Intro
G:------------------------------------------------------------------|
D:------------------------------------------------------------------|
A:---------------------------------99999999999999999999999999999999-|x1
E:-2-2-2-2-2-2-2-2-2-2-2-2-2-2-2-2----------------------------------|

Verse 1
G:----------------------------|  |--------------------6-4-3---|
D:----------1-4---3-6----1-4--|  |----------1-4---3-6-------4-|
A:---1-4--2-----4------2------|x3|---1-4--2-----4-------------|x1
E:-2--------------------------|  |-2--------------------------|

G:----------------------------|  |--------------------6-4-3---|
D:----------1-4---3-6----1-4--|  |----------1-4---3-6-------4-|
A:---1-4--2-----4------2------|x1|---1-4--2-----4-------------|x1
E:-2--------------------------|  |-2--------------------------|

Chorus
G:-------------------------6-4-3---|
D:-------------1-4-----3-6-------4-|
A:-----1-4-2-------4---------------|x4
E:-2-------------------------------|
[ Tab from: http://www.guitartabs.cc/tabs/s/spunge/ego_btab_ver_2.html ]
Verse 2
G:----------------------------|  |--------------------6-4-3---|
D:----------1-4---3-6----1-4--|  |----------1-4---3-6-------4-|
A:---1-4--2-----4------2------|x1|---1-4--2-----4-------------|x1
E:-2--------------------------|  |-2--------------------------|

G:----------------------------|  |--------------------6-4-3---|
D:----------1-4---3-6----1-4--|  |----------1-4---3-6-------4-|
A:---1-4--2-----4------2------|x1|---1-4--2-----4-------------|x1
E:-2--------------------------|  |-2--------------------------|

Chorus
G:-------------------------6-4-3---|
D:-------------1-4-----3-6-------4-|
A:-----1-4-2-------4---------------|x4
E:-2-------------------------------|

Bridge
G:---------------------|
D:----4-----4---4-421--|
A:---4-----4---4-----4-|x4
E:-2-----2---2---------|

Chorus
G:-------------------------6-4-3---|
D:-------------1-4-----3-6-------4-|
A:-----1-4-2-------4---------------|x4
E:-2-------------------------------|

Verse 3
G:-------------------------------------|
D:-------------1/4/1-------------1/4/1-|
A:---------2---------4-------2---------|x2
E:-2-----------------------------------|

G:-----------8h11p8----10-13----8h11p8-|
D:---8-11--9--------11--------9--------|
A:-9-----------------------------------|x2
E:-------------------------------------|

Chorus
G:-------------------------6-4-3---|
D:-------------1-4-----3-6-------4-|
A:-----1-4-2-------4---------------|x8
E:-2-------------------------------|