Spunge - Ego Chords & Tabs

 

Ego Chords & Tabs

Spunge Chords & Tabs

Version: 1 Type: Bass Tab 0 ratings
1 star 2 stars 3 stars 4 stars 5 stars
comments

Ego Bass Tab

   
Verse (try and make the notes punchy and short)
G|-------------------------------------------------------||
D|----------1-4---3-6----1-4-----------1-4---3-6----1----||
A|----1-4-2-----4------2---------1-4-2-----4------2---2--||
E|--2--------------------------2-------------------------||

Chorus - Same as verse (let each note ring for as long as possible
and play in the same kinda way as the guitar) 
[ Tab from: http://www.guitartabs.cc/tabs/s/spunge/ego_btab.html ]
Bass solo/break kinda bit
G|------------------------------------------------------------||
D|------4------4------4-2-1-----------4------4------4-21------||
A|----4------4------4--------4------4------4------4------2-4--||
E|--2------3------2---------------2------3------2-------------||

great bass line and song have fun!
ali listento_bobmarley@hotmail.com


| /  slide up
| \  slide down
| h  hammer-on
| p  pull-off
| ~  vibrato
| +  harmonic
| x  Mute note
Comments