Spunge - Dubstyle Chords & Tabs

 

Dubstyle Chords & Tabs

Spunge Chords & Tabs

Version: 1 Type: Bass Tab 0 ratings
1 star 2 stars 3 stars 4 stars 5 stars
comments

Dubstyle Bass Tab

rtist - Spunge
Album - Room For Abuse
Song - Dubstyle

Awesome song, practically a bass solo song!

|--7h9--| = 7 hammer onto 9
x = Mute note

-----
Intro
-----

G|----------7-----------|
D|----9---7-----7-------|
A|------------9---------|
E|-7--------------------| x4



G|----------7-----------|----------7-----------|
D|----9---7-------------|----9---7-----7-------|
A|------------9-0-------|------------9---------|
E|-7--------------------|-7--------------------|

---------
Pre-Verse
---------

G|----------------------|----------------------------|
D|----9---------7-------|----9-------7---8---9----10-|
A|--------7h9-x---------|--------7h9---8---9---10----|
E|-7--------------------|-7--------------------------|

-----
Verse
-----

G|----------------------|-----------------------|
D|----9---------7-------|----9------------------|
A|--------7h9-x---------|--------9-7------------|
E|-7--------------------|-7----------10-9-7-----| x 6

------
Chorus
------

G|----------------------------------|------------------------------|
D|-------------------9---9---9---9--|------------------------------|
A|-6-6-6-6-7-7-7-7------------------|-6-6-6-6-7-7-7-7-9--7--6--4---|
E|-----------------7---7---7---7----|------------------------------| x2

-----
Verse
-----

G|----------------------|-----------------------|
D|----9---------7-------|----9------------------|
A|--------7h9-x---------|--------9-7------------|
E|-7--------------------|-7----------10-9-7-----|

G|----------------------|-----------------------|
D|----9---------7-------|----9-------7h8-9-7----|
A|--------7h9-x---------|--------7h9---------9--|
E|-7--------------------|-7---------------------|

G|----------------------|-----------------------|
D|----9---------7-------|----9------------------|
A|--------7h9-x---------|--------9-7------------|
E|-7--------------------|-7----------10-9-7-----| x2

------
Chorus
------

G|----------------------------------|------------------------------|
D|-------------------9---9---9---9--|------------------------------|
A|-6-6-6-6-7-7-7-7------------------|-6-6-6-6-7-7-7-7-9--7--6--4---|
E|-----------------7---7---7---7----|------------------------------| x2

-----------
Guitar Solo
-----------
[ Tab from: http://www.guitartabs.cc/tabs/s/spunge/dubstyle_btab.html ]
G|----------------------|-----------------------|
D|----9---------7-------|----9------------------|
A|--------7h9-x---------|--------9-7------------|
E|-7--------------------|-7----------10-9-7-----| x3

G|----------------------|
D|---9------------------|
A|-------9-7------------|
E|7----------10-9-7-----| x2

------
Chorus
------

G|----------------------------------|------------------------------|
D|--------------------9-------7-----|------------------------------|
A|-6-6-6-6-7-7-7-7------7h9-x-------|-6-6-6-6-7-7-7-7-9--7--6--4---|
E|-----------------7----------------|------------------------------|

G|----------------------------------|------------------------------|
D|-------------------9---9---9---9--|------------------------------|
A|-6-6-6-6-7-7-7-7------------------|-6-6-6-6-7-7-7-7-9--7--6--4---|
E|-----------------7---7---7---7----|------------------------------|

-----
Verse
-----

G|----------------------|-----------------------|  \
D|----9---------7-------|----9------------------|   |
A|--------7h9-x---------|--------9-7------------|   |
E|-7--------------------|-7----------10-9-7-----|   |
                                                    |
G|----------------------|-----------------------|   |
D|----9---------7-------|----9-------7h8-9-7----|   |
A|--------7h9-x---------|--------7h9---------9--|   |
E|-7--------------------|-7---------------------|  /

------
Chorus
------

G|----------------------------------|------------------------------|
D|--------------------9-------7-----|------------------------------|
A|-6-6-6-6-7-7-7-7------7h9-x-------|-6-6-6-6-7-7-7-7-9--7--6--4---|
E|-----------------7----------------|------------------------------|

G|----------------------------------|----------------------11-----9------8-----6-|
D|----------------------------------|-------------------11------9------8-----6---|
A|-6-6-6-6-7-7-7-7------------------|-6-6-6-6-7-7-7-7-9-------7------6-----4-----|
E|-----------------7-7-7-7-7-7-7-7--|--------------------------------------------|

-----
Outro
-----

G|----------7-----------|
D|----9---7-----7-------|
A|------------9---------|
E|-7--------------------| x6

G|----------7-----------|
D|----9---7-------------|
A|------------9-0-------|
E|-7--------------------|

G|----------7-----------|
D|----9---7-----7-------|
A|------------9---------|
E|-7--------------------| x3

G|----------7-----------|
D|----9---7-------------|
A|------------9-0-------|
E|-7----------------7---|
Comments