Spunge - Centrefold Chords & Tabs

 

Centrefold Chords & Tabs

Spunge Chords & Tabs

Version: 1 Type: Tab 0 ratings
1 star 2 stars 3 stars 4 stars 5 stars
comments

Centrefold Tab

E----------------------------------------------------------------------------
B-12h15-12-------------------------------10-------------------10---12h15-12--
D-----------14--12-12-----9--12-12--9h12----12-9--12-------12----------------
G----------------------------------------------------------------------------
A----------------------------------------------------------------------------
E----------------------------------------------------------------------------
[ Tab from: http://www.guitartabs.cc/tabs/s/spunge/centrefold_tab.html ]
E----------------------------------------------------------------------------
B------------------------------10--------------------------------------------
D--14--12-12-----9--12-12-9h12----12-9--12-----------------------------------
G----------------------------------------------------------------------------
A----------------------------------------------------------------------------
E----------------------------------------------------------------------------

This is my first ever tab and thats why its so short and simple...
i heard it on kerrang and thought it was a catchy tune.
ROCK ON DUDES!!!!

Scotland Rocks!
Comments