Spunge - Break Up Chords & Tabs

 

Break Up Chords & Tabs

Spunge Chords & Tabs

Version: 2 Type: Tab 0 ratings
1 star 2 stars 3 stars 4 stars 5 stars
comments

Break Up Tab

   
-------------------------------------------------------------------------------
			     Break Up - Spunge
-------------------------------------------------------------------------------

By: Wai
Right, here is my second tab. This is an amazing song that is pretty easy to play as 
well!! Get one of the bass tabs on this site coz they r pretty good and put this with 
it, then you’ll be able to play the song. It will sound very good indeed!!! I’ve done 
written this song in chronological order so it’s dead easy to follow.

It’s all clean!!
^ = palm mute
* = hold/let ring
. = ska strokes

Intro: 
      G    A         G    A         G    A         G  G    A  A
e|----3----5—---|----3----5----|----3----5----|----3--3----5--5----|
B|----3----5----|----3----5----|----3----5----|----3--3----5--5----|
G|----4----6----|----4----6----|----4----6----|----4--4----6--6----|
D|----5----7----|----5----7----|----5----7----|----5--5----7--7----|
A|----5----7----|----5----7----|----5----7----|----5--5----7--7----|
E|----3----5—---|----3----5----|----3----5----|----3--3----5--5----|
      .    .         .    .         .    .         .  .    .  .

Verse:
    D  D  D  D     G  G  A  A  
e|--5--5--5--5--|--3--3--5--5--|
B|--7--7--7--7--|--3--3--5--5--|
G|--7--7--7--7--|--4--4--6--6--|
D|--7--7--7--7--|--5--5--7--7--|
A|--5--5--5--5--|--5--5--7--7--|
E|--x--x--x--x--|--3--3--5--5--| x8
    .  .  .  .     .  .  .  .

Chorus 1:
    B             F#            G             D    C#
e|-------------|-------------|-------------|----------|
B|-------------|-------------|-------------|----------|
G|-------------|-------------|-------------|--7----6--|
D|--99--99999--|--44--44444--|--55--55555--|--7----6--|
A|--99--99999--|--44--44444--|--55--55555--|--5----4--|
E|--77--77777--|--22--22222--|--33--33333--|----------|
    ^   ^^^^^     ^   ^^^^^     ^   ^^^^^     *    *

    B             F#            G             A
e|-------------|-------------|-------------|-----------|
B|-------------|-------------|-------------|-----------|
G|-------------|-------------|-------------|-----------|
D|--99--99999--|--44--44444--|--55--55555--|--77777----|
A|--99--99999--|--44--44444--|--55--55555--|--77777----|
E|--77--77777--|--22--22222--|--33--33333--|--55555----|
    ^   ^^^^^     ^   ^^^^^     ^   ^^^^^     ^^^^^    

Verse x4
Chorus
Verse x4

Chorus 2:
    B             F#            G             D    C#
e|-------------|-------------|-------------|----------|
B|-------------|-------------|-------------|----------|
G|-------------|-------------|-------------|--7----6--|
D|--99--99999--|--44--44444--|--55--55555--|--7----6--|
A|--99--99999--|--44--44444--|--55--55555--|--5----4--|
E|--77--77777--|--22--22222--|--33--33333--|----------|
    ^   ^^^^^     ^   ^^^^^     ^   ^^^^^     *    *
[ Tab from: http://www.guitartabs.cc/tabs/s/spunge/break_up_tab_ver_2.html ]
    B             F#            G             A  G  F# E  D  
e|-------------|-------------|-------------|-----------------|
B|-------------|-------------|-------------|-----------------|
G|-------------|-------------|-------------|--------------7--|
D|--99--99999--|--44--44444--|--55--55555--|--7--5--4—-2--7--|
A|--99--99999--|--44--44444--|--55--55555--|--7--5--4—-2--5--|
E|--77--77777--|--22--22222--|--33--33333--|--5--3--2--0-----|
    ^   ^^^^^     ^   ^^^^^     ^   ^^^^^     *  *  *  *  *

Middle Section: 
    D             F#            G            A
e|-------------|-------------|-------------|--------------|
B|-------------|-------------|-------------|--------------|
G|--77—-77777--|-------------|-------------|--------------|
D|--77—-77777--|--44--44444--|--55—-55555--|--77—-x7x7x7--|
A|--55—-55555--|--44--44422--|--55—-55555--|--77—-x7x7x7--|
E|-------------|--22--22222--|--33—-33333--|--55--x5x5x5--|
    ^   ^^^^^     ^   ^^^^^     ^   ^^^^^     ^   ^^^^^^

    D               F#              G               A 
e|---------------|---------------|---------------|---------------|
B|---------------|---------------|---------------|---------------|
G|--77--7--7--7--|---------------|---------------|---------------|
D|--77--7--7--7--|--44--4--4--4--|--55--5--5--5--|--77--7--7--7--|
A|--55--5—-5--5--|--44--4--4--4--|--55--5--5--5--|--77--7--7--7--|
E|---------------|--22--2--2--2--|--33--3--3--3--|--55--5--5--5--| x2
    ^   .  .  .     ^   .  .  .     ^   .  .  .     ^   .  .  .


Verse:
    D          G   A 
e|--55--55--|--33--55--|
B|--77--77--|--33--55--|
G|--77--77--|--44--66--|
D|--77--77--|--55--77--|
A|--55--55--|--55--77--|
E|--xx--xx--|--33--55--| x4
    ^   ^      ^   ^

Last Section:
    B             F#            G             D   C#
e|-------------|-------------|-------------|---------------|
B|-------------|-------------|-------------|---------------|
G|-------------|-------------|-------------|--77--66----6--|
D|--99--99999--|--44--44444--|--55--55555--|--77--66----6--|
A|--99--99999--|--44--44444--|--55--55555--|--55--44----4--|
E|--77--77777--|--22--22222--|--33--33333--|---------------| x3
    ^   ^^^^^     ^   ^^^^^     ^   ^^^^^     ^   ^     ^

    B             F#            G             A  G  F# E  D  
e|-------------|-------------|-------------|-----------------|
B|-------------|-------------|-------------|-----------------|
G|-------------|-------------|-------------|--------------7--|
D|--99--99999--|--44--44444--|--55--55555--|--7--5--4—-2--7--|
A|--99--99999--|--44--44444--|--55--55555--|--7--5--4—-2--5--|
E|--77--77777--|--22--22222--|--33--33333--|--5--3--2--0-----|
    ^   ^^^^^     ^   ^^^^^     ^   ^^^^^     *  *  *  *  *

Outro:

      G    A         G    A         G    A    D         G    A    D
e|----3----5—---|----3----5----|----3----5----5----|----3----5----5----|
B|----3----5----|----3----5----|----3----5----7----|----3----5----7----|
G|----4----6----|----4----6----|----4----6----7----|----4----6----7----|
D|----5----7----|----5----7----|----5----7----7----|----5----7----7----|
A|----5----7----|----5----7----|----5----7----5----|----5----7----5----|
E|----3----5—---|----3----5----|----3----5----x----|----3----5----x----|
      .    .         .    .         .    .    .         .    .    .

So here it is, I’m pretty sure this is accurate but as you know and I know, if there 
are any mistakes that I have made in this tab, please let me know as a comment or 
e-mail me at calm_like_a_bomb15@hotmail.com. Could you also rate my tab please!!! 
ENJOY!!! Wai J 

===============================================================================
Comments