Spunge - Break Up Chords & Tabs

 

Break Up Chords & Tabs

Spunge Chords & Tabs

Version: 1 Type: Tab 0 ratings
1 star 2 stars 3 stars 4 stars 5 stars
comments

Break Up Tab

Band: [Spunge]
Title: Break Up
Album: Room For Abuse

Losing_Streak requested this in the forum to tab this so i thought 
i may aswell so here we go. took me about 5 minutes to work out, mr. Losing_Streak 
i wil have you know. AND to embarrass you more i have been playing for 5 months.

Intro - with bass riff
e|---------------------------------------------------------|
B|---------------------------------------------------------|
G|------12--14-------12--14-------12--14-------12-12/14-14-|
D|-BASS-12--14--BASS-12--14--BASS-12--14--BASS-12-12/14-14-|
A|------10--12-------10--12-------10--12-------10-10/12-12-|
E|---------------------------------------------------------|

Verse
e|-10--10--10--10-/-10--10-/-12--12------------------------|
B|-10--10--10--10-/-12--12-/-14--14------------------------|
G|-11--11--11--11-/-12--12-/-14--14------------------------|
D|---------------------------------------------------------|
A|---------------------------------------------------------|
E|---------------------------------------------------------|

Chorus - part 1
e|---------------------------------------------------------|
B|---------------------------------------------------------|
G|-44-4444444-----------------------77-66------------------|
D|-44-4444444-44-4444444-55-5555555-77-66------------------|
A|-22-2222222-44-4444444-55-5555555-55-44------------------|
E|------------22-2222222-33-3333333------------------------|
      PM.....    PM.....    PM.....

Chorus - part 2
e|---------------------------------------------------------|
B|---------------------------------------------------------|
G|-44-4444444----------------------------------------------|
D|-44-4444444-44-4444444-55-5555555-77777------------------|
A|-22-2222222-44-4444444-55-5555555-77777------------------|
E|------------22-2222222-33-3333333-55555------------------|
      PM.....    PM.....    PM.....

Chorus - part 3 - before interlude only and at end
e|---------------------------------------------------------|
B|---------------------------------------------------------|
G|-44-4444444-----------------------------------7----------|
D|-44-4444444-44-4444444-55-5555555-7-5-4-2/4/2-7----------|
A|-22-2222222-44-4444444-55-5555555-7-5-4-2/4/2-5----------|
E|------------22-2222222-33-3333333-5-3-2-0/2/0------------|
      PM.....    PM.....    PM.....
[ Tab from: http://www.guitartabs.cc/tabs/s/spunge/break_up_tab.html ]
Interlude - quiet
e|---------------------------------------------------------|
B|---------------------------------------------------------|
G|-77-7777777----------------------------------------------|
D|-77-7777777-44-4444444-55-5555555-77-7777777-------------|
A|-55-5555555-44-4444444-55-5555555-77-7777777-------------|
E|------------22-2222222-33-3333333-55-5555555-------------|
      PM.....    PM.....    PM.....    PM.....

Interlude - continued
e|---------------------------------------------------------|
B|---------------------------------------------------------|
G|-77-XX7XX7XX7--------------------------------------------|
D|-77-XX7XX7XX7-44-XX4XX4XX4-55-XX5XX5XX5-77-XX7XX7XX7-----|
A|-55-XX5XX5XX5-44-XX4XX4XX4-55-XX5XX5XX5-77-XX7XX7XX7-----|
E|--------------22-XX2XX2XX2-33-XX3XX3XX3-55-XX5XX5XX5-----|
      PM.....      PM.....      PM.....      PM.....

Interlude - continued - build up
e|---------------------------------------------------------|
B|---------------------------------------------------------|
G|-77777777------------------------------------------------|
D|-77777777-44444444-55555555-77777777---------------------|
A|-55555555-44444444-55555555-77777777---------------------|
E|----------22222222-33333333-55555555---------------------|

Interlude - last part - play x4
e|---------------------------------------------------------|
B|---------------------------------------------------------|
G|-77777777------------------------------------------------|
D|-77777777-44444444-55555555------------------------------|
A|-55555555-44444444-55555555------------------------------|
E|----------22222222-33333333------------------------------|

Outro - with bass riff
e|---------------------------------------10------------10--|
B|---------------------------------------10------------10--|
G|------12--14-------12--14-------12--14-11-BASS-12-14-11--|
D|-BASS-12--14--BASS-12--14--BASS-12--14-12------12-14-12--|
A|------10--12-------10--12-------10--12---------10-12-----|
E|---------------------------------------------------------|

Order:
Intro x1
Verse x8
Chorus - part 1 x1
Chorus - part 2 x1
Verse x4
Chorus - part 1 x1
Chorus - part 2 x1
Verse x4
Chorus - part 1 x1
Chorus - part 3 x1
Interlude x1 last part x4
Chorus - part 1 x1
Chorus - part 1 x1
Chorus - part 1 x1
Chorus - part 3 x1

ok dudes thats it, my second [Spunge] tab. 
Losing_Streak i hope u like it.
I am pretty sure its all correct, if there are any mistakes email me: 
getcha_grooveon@hotmail.com or talk 2 me on msn if u want to. If there are any 
mistakes its prob cos i tabbed it out wrong cos i just nopticed i had done the 
intro on the low E so i changed it. [Spunge] rule! Looking forward to the new 
album. The new single is pretty good too.
Comments