Spunge - Break Up Chords & Tabs

 

Break Up Chords & Tabs

Spunge Chords & Tabs

Version: 2 Type: Bass Tab 0 ratings
1 star 2 stars 3 stars 4 stars 5 stars
comments

Break Up Bass Tab

Song - Break Up 
Artist - [Spunge]
Tabbed By - Steve Bond
Bass Tab
Standard Tuning (EADG)


Main Riff

G|-----7-----------7------------7--------7----|
D|--------7--8--9----9--7-----5---5---5---5---|
A|--5-----------------------------------------|
E|--------------------------------------------|


Chorus

First

G|--------------------------------------------------------|
D|--------------------------------------------------------|
A|--2-2-2-2-2-2-2-2-2-------------------------------------|
E|----------------------2-2-2-2-2-2-2-2---3-3-3-3-3-3-3-3-|
[ Tab from: http://www.guitartabs.cc/tabs/s/spunge/break_up_btab_ver_2.html ]
G|--------------------------------------------------------|
D|--------------------------------------------------------|
A|--5-5-5-5-4-4-4-4---------------------------------------|
E|--------------------------------------------------------|

Then

G|--------------------------------------------------------|
D|--------------------------------------------------------|
A|--2-2-2-2-2-2-2-2-2-------------------------------------|
E|----------------------2-2-2-2-2-2-2-2---3-3-3-3-3-3-3-3-|

G|--------------------------------------------------------|
D|--------------------------------------------------------|
A|--------------------------------------------------------|
E|--5-5-5-5-5---------------------------------------------|


Thats Essentially it, I've only listened to the song a few 
times but i think its pretty much perfect, Try it out.

Corrections?, Comments?
E-mail me - Bass@stalemate.freeserve.co.uk
Comments