Spunge - All She Ever Wants Chords & Tabs

 

All She Ever Wants Chords & Tabs

Spunge Chords & Tabs

Version: 2 Type: Tab 0 ratings
1 star 2 stars 3 stars 4 stars 5 stars
comments

All She Ever Wants Tab

[Spunge]-All That She Ever Wants
Tabbed by Merlin Blencowe

INTRO
-2--/--7--7--------------------------------------------------------------
-4--/--9--9----5--7---7-----7----5--5------------------------------------
-4--/--9--9----6--8---8-----8----6--6------------------------------------
-4--/--9--9----7--9---9-----9----7--7------------------------------------
---------------7--9---9-----9----7--7------------------------------------
-------------------------------------------------------------------------
[ Tab from: http://www.guitartabs.cc/tabs/s/spunge/all_she_ever_wants_tab_ver_2.html ]
This is used for all the verses,up to the chorus which manifests as:
(Rough guide to timing is shown below the tab)

------------------------------------------------------------------------
-------------------------------------------------at-end of chorus-play:-
--------------------------------------------------------15--------------
-9-/--13-/--14---------13-----------11-----9------------16--------------
-9-/--13-/--14---------13-----------11-----9--etc-------16--------------
-7-/--11-/--12---------11------------9-----7------------14--------------
                 It's all that she ever wants
X7 /  x7 / x7          x2	    x2     x1


SOLO: Improvise around the B minor pentatonic scale, I can't be bothered to tab it all.
Comments