Spunge - All She Ever Wants Chords & Tabs

 

All She Ever Wants Chords & Tabs

Spunge Chords & Tabs

Version: 1 Type: Tab 0 ratings
1 star 2 stars 3 stars 4 stars 5 stars
comments

All She Ever Wants Tab

   
song- all she ever wants 
artist- spunge

          intro

E[-1/2--7--4-6--4-
B[-1/2--7--5-7--5-            u'll have to work out the rythem 
G[-2/3--8--4-6--4-            
D[----------------          
A[----------------            the intro goes on until the chorus
E[----------------            

---------------------------------------------------------------------

during the chorus the distortion comes in with 

E[--------------------------------------------------
B[--------------------------------------------------
G[-5-5-5-5-5-5-5/9-9-9-9-9-9-9/10-10-10-10-10-10-10-
D[-5-5-5-5-5-5-5/9-9-9-9-9-9-9/10-10-10-10-10-10-10-
A[-3-3-3-3-3-3-3/7-7-7-7-7-7-7/8--8--8--8--8--8--8--
E[--------------------------------------------------
     ----pm---     ---pm----     ---------pm--------

                      *
 
then when he sings "it's all that she ever wants"

E[----------------        
B[----------------
G[-5-5-5/10-10-10-
D[-5-5-5/10-10-10-
A[-3-3-3/8--8--8--
E[----------------

E[----       
B[----     do this last power chord repeatedly,
G[-10-     at the end of the chorus and i think when he sing's,
D[-10-     "shes inside ur head" a lot of times.
A[-8--     
E[----
[ Tab from: http://www.guitartabs.cc/tabs/s/spunge/all_she_ever_wants_tab.html ]
-------------------------------------------------|
                                                 
the ska rythem does this at the chorus [I THINK]

E[-8-8-8-8-7-7-7-7-5-5-5-5-
B[-8-8-8-8-8-8-8-8-6-6-6-6-
G[-9-9-9-9-7-7-7-7-6-6-6-6-
D[-------------------------
A[-------------------------
E[-------------------------

then when he sings "it's all that she ever wants"

E[-8-8-8-8-     
B[-8-8-8-8-     do this last chord,
G[-9-9-9-9-     at the end of the chorus and i think when he sing's,
D[---------     "shes inside ur head" a lot of times.
A[---------     
E[---------

---------------------------------------------------------------------
                       SOLO
during the solo the ska rythem does the intro 

the destortion guitar does:

E[------------------------
B[------------------------
G[-5-5--2-4-4-4-4/2-2-2-2-
D[-3-3--2-4-4-4-4/2-2-2-2-
A[-3-3--0-2-2-2-2/0-0-0-0-
E[------------------------

and the solo goes like this:

E[-but--------------------------
B[----i-------------------------
G[-----can't--------------sorry-
D[----------work--------is------
A[--------------out---it--------
E[-----------------wat----------
  
      if u have any queerys about this then email me on              

             theflyingmidge@hotmail.com
      
i think i have this done ok but if u think different about it then please
please please email me im lonley and have no social life
Comments