Spunge - All Gone Wrong Chords & Tabs

 

All Gone Wrong Chords & Tabs

Spunge Chords & Tabs

Version: 1 Type: Tab 0 ratings
1 star 2 stars 3 stars 4 stars 5 stars
comments

All Gone Wrong Tab

   
Spunge]-All Gone Wrong
Tabbed by Merlin Blencowe

INTRO
------------------------------------------------------------
------------------------------------------------------------
---------------------------2--------------------------------
----2-----2-------0--4------------2-----2-------------------
-0-----4------------------------------4-----4---2---0---etc-
------------------------------------------------------------
This actually plays throughout the verses with only the bass
as acompanyment, but if you want rhythm for it you'll be needing these:
------------------------------------------------------------
-5--------7--------9----------------------------------------
-6--------7--------9----------------------------------------
-7--------7--------9----------------------------------------
-7--------5--------7----------------------------------------
-5----------------------------------------------------------
 A	  D	   E
[ Tab from: http://www.guitartabs.cc/tabs/s/spunge/all_gone_wrong_tab.html ]
These fit round the lyrics as:
		
A			     D
Let me tell ya a story about a girl named Sheila
A		          D
Lovely little thing but a bit of a dreamer
A		    D		
She's been married, three long years
A			       E
Got three children and they're all litle dears but...

And for the chorus:
A	   D	
Uhoh, it's all gone wrong and
A	   D
Uhoh, it's all gone wrong amd
A               D
Uhoh, it's all gone wrong 
E
 It's all gone wrong!

When the rhythm really does kick in it's exactly the same
chords in the following manner:
---------------------------------------------------------
---------------------------------------------------------
-6--6----7--7-----6--6--------9--9-----------------------
-7--7----7--7-----7--7--------9--9-----------------------
-7--7----5--5-----7--7--------7--7-----------------------
-5--5-------------5--5-----------------------------------

And that's about it really. Now you've just got to figure out a bass line...
Comments