Spunge - All Gone Wrong Chords & Tabs

 

All Gone Wrong Chords & Tabs

Spunge Chords & Tabs

Version: 1 Type: Bass Tab

All Gone Wrong Bass Tab

Band: Spunge
Song: All Gone Wrong
Album: Room For Abuse
Tabbed by: Skish

Intro(bass enters at 0:03)
G:--------------------------------------------|
D:--------------------------------------------|
A:--------------------------------------------|x1
E:-5\1~---------------------------------------|

Verse 1
G:------------------|  |------------------|
D:------------------|  |------------------|
A:------------------|x3|-----------4-5-7--|x5
E:-5-55555----------|  |-5-55555-5--------|

Chorus
G:------------------|  |-----------9-7----|
D:-----9-------7----|  |-----9---7-----7--|
A:---7---7---5---5--|x1|---7---7----------|x1
E:------------------|  |------------------|

G:------------------|  |------------------|
D:-----9-------7----|  |-----9------------|
A:---7---7---5---5--|x1|---7---7---5-4-2--|x1
E:------------------|  |------------------|
[ Tab from: http://www.guitartabs.cc/tabs/s/spunge/all_gone_wrong_btab.html ]
Verse 2
G:------------------|  |--------------------|
D:------------------|  |--------------------|
A:------------------|x3|-----------4-5-7----|x5
E:-5-55555~~~-------|  |-5-55555-5----------|

Repeat:
Chorus
Verse 2
Chorus

Bridge
G:----------------------------------|
D:----------------------------------|
A:---------55555555----------7---7--|x4
E:-55555555--------5555555555--55---|

Repeat:
Verse 2
Chorus
Bridge
Verse 2
Chorus
Bridge

Outro
G:----------------------------------|
D:----------------------------------|
A:---------55555555----------7---7--|x1
E:-55555555--------5555555555--55---|

G:---------------------------------------------------------------------------------|
D:---------------------------------------------------------------------------------|
A:---------55555555------------7-------7-------------------------------------------|x1
E:-55555555--------555555555-5-----5-5-----5~~~~~~~--------------------------------|