Springsteen Bruce - Working On The Highway Chords & Tabs

 

Working On The Highway Chords & Tabs

Springsteen Bruce Chords & Tabs

Version: 1 Type: Bass Tab 0 ratings
1 star 2 stars 3 stars 4 stars 5 stars
comments

Working On The Highway Bass Tab

Author: Bruce Springsteen 
Song: Working on the highway
Album: Born in the USA 
Tabbed by: Daniele Pelliccia

Note that "h" is for hammer on and "r" is for rest

Verse
|---------------|---------------|----------|----------|
|---------------|-2h3-33--------|-2h3-333--|-2h3-333--|
|-2h3-33-2h3-33-|--------2h3-33-|--------3-|--------3-|
|---------------|---------------|----------|----------|

|---------------|---------------|----------|----------|
|---------------|---------------|-2h3-333--|-2h3-333--|
|-2h3-33-2h3-33-|--------2h3-33-|--------3-|--------3-|
|---------------|-2h3-33--------|----------|----------|

|---------------|---------------|----------|----------|
|---------------|-2h3-33--------|-2h3-333--|-2h3-333--|
|-2h3-33-2h3-33-|--------2h3-33-|--------3-|--------3-|
|---------------|---------------|----------|----------|
[ Tab from: http://www.guitartabs.cc/tabs/s/springsteen_bruce/working_on_the_highway_btab.html ]
|---------------|---------------|
|---------------|---------------|
|-2h3-33-2h3-33-|--------2h3-33-|
|---------------|-2h3-33--------|

Chorus
|----------|----------|
|-2h3-333--|-4h5-555--|   4 times
|--------3-|--------3-|
|----------|----------|

Post-chorus
|----------|----------|----------|----------|
|-2h3-333--|-2h3-333--|-2h3-333--|-55-------|
|--------3-|--------3-|--------3-|------3-r-|
|----------|----------|----------|----3-----|

Bridge
|--------------------------------------|
|---------------------3---5----5555555-|
|-----3-----3-----3--------------------|
|-5------5-----5-----------------------|

song structure

verse X2 (no bass during the first one)
chorus
post-chorus
verse
chorus
post-chorus
bridge
verse
chorus X2
post-chorus X2

For suggestions or comments, please mail me at dpelliccia@katamail.com

Comments