Springsteen Bruce - The Rising Solo Chords & Tabs

 

The Rising Solo Chords & Tabs

Springsteen Bruce Chords & Tabs

Version: 1 Type: Tab 2 ratings
1 star 2 stars 3 stars 4 stars 5 stars
comments

The Rising Solo Tab

This is the solo, I'm pretty sure. 

[ Tab from: http://www.guitartabs.cc/tabs/s/springsteen_bruce/the_rising_solo_tab.html ]
E-------------------------------------------------
B--------14/16\14--12----------14--12h14p12h14p12-
G--/13-----------------13--11---------------------
D-------------------------------------------------
A-------------------------------------------------
E-------------------------------------------------


E---------------------------11-----
B------14/16\14--12-------------14-
G--13---------------13--11---------
D----------------------------------
A-----------------------------------
R-----------------------------------
Comments