Springsteen Bruce - Roulette Chords & Tabs

 

Roulette Chords & Tabs

Springsteen Bruce Chords & Tabs

Version: 1 Type: Bass Tab 0 ratings
1 star 2 stars 3 stars 4 stars 5 stars
comments

Roulette Bass Tab

Title: Roulette
Author: Bruce Springsteen
Album: Tracks
Tabbed by: Daniele Pelliccia

Intro
|-----------------||--------------------------------------------|
|--77--77--77--77-||--------------------------------------------|
|-----------------||-5--5-5---5-5---5-5---5-3---3-3---3-3---3-3-|
|-----------------||--------------------------------------------|

|----------------------------------------------------|
|------------------------------------8--7-5---------*|
|--3-1---1-1---1-1---1-1---1/13---8---------8--7-5--*|
|----------------------------------------------------|            

Verse 1
|------------------------------------|----------------------|
|------------------------------------|-3/8-8----8-7-5-------|
|-5-55-55-55-53-33-33-33-31-11-11-11-|--------8-------8-7-5-|
|------------------------------------|----------------------|

|------------------------------------|----------------------|
|------------------------------------|-3/8------7-5---------|
|-5-55-55-55-53-33-33-33-31-11-11-11-|-----8---8------8-7-5-|
|------------------------------------|----------------------|

|--------------------------------------------------------------|
|------------4-5-7---7--7--7-7--8---8--8--8-8------------------|
|-5-35-35-35--------7--7--7-7-7----8--8--8-8-8-----------------|
|-----------------------------------------------77777777777777-|            
[ Tab from: http://www.guitartabs.cc/tabs/s/springsteen_bruce/roulette_btab.html ]
Chorus
|------------|---------|------------|---------|------|
|------------|---------|------------|---------|-3----|
|-3----3-5-5-|-3---3-1-|-3----3-5-5-|-3---3-1-|---33-|
|----5-------|---5-----|----5-------|---5-----|------|

Verse 2 ( same as verse 1)

Chorus

Guitar solo 
(I wrote only the positions,listen to the song for the correct time)
|-----------------------------------------------------|
|-77777-------4h5555-4h5555-------33333-55555---------|
|-------77777---------------55555-------------55555--3|
|-----------------------------------------------------|

Verse 3 ( no bass during the first part)

|------------------------------------|----------------------|
|------------------------------------|-3/8-8----8-7-5-------|
|-5-55-55-55-53-33-33-33-31-11-11-11-|--------8-------8-7-5-|
|------------------------------------|----------------------|

|-77-77-99-99-1010-1010-1212-1212-1010-1010-------1414-----1414--|
|----------------------------------------------------------------|
|---------------------------------------------1212------1212-----|
|----------------------------------------------------------------|

Chorus X2

That's all. If you like Springsteen and if you play bass, please mail me
for suggestions or corrections or if you have other Springsteen tabs.
I'm Daniele Pelliccia, italian bassist. You can reach me at
                     dpelliccia@katamail.com

Comments