Springsteen Bruce - Glory Days Chords & Tabs

 

Glory Days Chords & Tabs

Springsteen Bruce Chords & Tabs

Version: 1 Type: Tab 3 ratings
1 star 2 stars 3 stars 4 stars 5 stars
comments

Glory Days Tab

   
INTRO:
(repeats through song)
E------------------------------------------------------------
A-0-0---x-x-------------------------0-0---x---------------------------------------
D-2-2H4-x-x-------------------------2-2H4-x-------------------------------------------
G------------------0-0--x--------------------------------------------
B-----------------2-2H4-x----------------------------------------------
E---------------------------------------------------------

"saw him the other night"
  E E E E E E        D D D D D D
E-0-0-0-0-0-0-----------------------------------------------------
A-2-2-2-2-2-2-------------------------------------------------------
D-2-2-2-2-2-2--------0-0-0-0-0-0-------REPEAT------------------------
G-1-1-1-1-1-1--------2-2-2-2-2-2------------------------------------------
B-0-0-0-0-0-0--------3-3-3-3-3-3----------------------------------
E-0-0-0-0-0-0--------2-2-2-2-2-2---------------------------------------
[ Tab from: http://www.guitartabs.cc/tabs/s/springsteen_bruce/glory_days_tab.html ]
VERSE:(INTRO)
E--------------------------------------------------------
A-0-0---x--------------------0-0-------------------------
D-2-2H4-x------0-0---x-------2-2H4-----------------------
G--------------2-2H4-x-----------------------------------
B--------------------------------------------------------
E--------------------------------------------------------
 REPEAT INTIRE SONG THEN INTRO PART and :

E-------------------------------------------------------
A--------------------------------5-5-----2-2-2----------
D-2-2----x-x--2-2---x-x--2-2-----7-7H9---4-4-4---WHOO---
G-4-4H6--x-x--4-4H6-x-x--4-4H6--------------------------
B-------------------------------------------------------
A-------------------------------------------------------


E------------------------------------------------
A-0-0-0-0-0-0------------------0-0-0-0-0-0-------
D-2-2-2-2-2-2---0-0-0-0-0-0----2-2-2-2-2-2-------
G---------------2-2-2-2-2-2----------------------
B---------------------------------REPEAT---------
E------------------------------------------------
back into the intro for the finish
thanks,
Jack
Comments