Springsteen Bruce - Darlington County Chords & Tabs

 

Darlington County Chords & Tabs

Springsteen Bruce Chords & Tabs

Version: 1 Type: Bass Tab 0 ratings
1 star 2 stars 3 stars 4 stars 5 stars
comments

Darlington County Bass Tab

#----------------------------------PLEASE NOTE---------------------------------#
#This file is the author's own work and represents his interpretation of the   #
#song. You may only use this file for private study, scholarship, or research. #
#------------------------------------------------------------------------------#

BRUCE SPRINGSTEEN - DARLINGTON COUNTY
 from the album "Born in the USA"

[ Tab from: http://www.guitartabs.cc/tabs/s/springsteen_bruce/darlington_county_btab.html ]
Intro:
G|---------|---------|-0-------|---------|-0-------|---------|
D|-5-3-2-0-|---2-3-4-|---3-2-0-|---2-3-4-|---3-2-0-|---2-3-4-|
A|---------|-3-------|---------|-3-------|---------|-3-------|
E|---------|---------|---------|---------|---------|---------|
   1 2 3 4   1 2 3 4   1 2 3 4   1 2 3 4   1 2 3 4   1 2 3 4

G|-0-------|---------|
D|---3-2-0-|---2-3-4-|
A|---------|-3-------|
E|---------|---------| then go to:

Verse/ Chorus (all the rest):
G|-0-------|---------|
D|---3-2-0-|---2-3-4-|
A|---------|-3-------|
E|---------|---------|



--------------------------------------------------------------------
Transcripted by Mareike E. (http://www.bruce-springsteen.tk)
For more questions and corrections email me at mybrucesite@yahoo.com
Comments