Springsteen Bruce - Cover Me Chords & Tabs

 

Cover Me Chords & Tabs

Springsteen Bruce Chords & Tabs

Version: 1 Type: Bass Tab 0 ratings
1 star 2 stars 3 stars 4 stars 5 stars
comments

Cover Me Bass Tab

   
Author: Bruce Springsteen
Song: Cover Me
Album: Born in the USA
Tabbed by: Daniele Pelliccia

I divided the song in four important parts, called A,B,C,D
I wrote them, but I think there are some variations during guitar solo.

Part A
|------------|
|------------|
|--------6---|
|--88--6--6--|

Part B
|---------------------|
|---------------------|
|--88-8---6--88-8---6-|
|-------8---------8---|

Part C
|------------------------------------------------------------------|
|------------------------------------------------------------------|
|-------6--------6--/11-11-11-11-11-11-11-11-/13-13-13-13----------|
|--88--6-6--88--6-6---------------------------------------\6-6-6-6-|
[ Tab from: http://www.guitartabs.cc/tabs/s/springsteen_bruce/cover_me_btab.html ]
Part D
|--------------------------------------------
|--------------------------------------------
|-88-8-6-8-8-6----------------8--8-6-8--8-6--
|-----8-8---8-8-8-3-6-8--8-6-8----8-8----8---

 ---------------------------------------------|
 ---------------------------------------------|
 --/10-10-10-10-10-10-10-10-------------------| 
 ----------------------------\3-3-3-3-3-3-3-3-|

Note that
/ is slide up
\ is slide down

SONG STRUCTURE
Intro       AX4
Verse 1     AX4-B-C-AX2
Verse 2     AX4-B-C-AX2
Bridge      D
Verse 3     AX4-B-C-AX2
Guitar solo AX4-B-C-AX2
Bridge      D
Verse 4     AX4-B-CX3
End         A repeated many times


If you like Springsteen and if you play bass, please mail me
for suggestions or corrections or if you have other Springsteen tabs.
I'm Daniele Pelliccia, italian bassist. You can reach me at
                     dpelliccia@katamail.com

Comments