Springsteen Bruce - Badlands Sax Solo Chords & Tabs

 

Badlands Sax Solo Chords & Tabs

Springsteen Bruce Chords & Tabs

Version: 1 Type: Tab 0 ratings
1 star 2 stars 3 stars 4 stars 5 stars
comments

Badlands Sax Solo Tab

#----------------------------------PLEASE NOTE---------------------------------#
#This file is the author's own work and represents his interpretation of the   #
#song. You may only use this file for private study, scholarship, or research. #
#------------------------------------------------------------------------------#

BRUCE SPRINGSTEEN - BADLANDS (saxophone arr. for guitar)
 from the album "Darkness on the Edge of Town"
[ Tab from: http://www.guitartabs.cc/tabs/s/springsteen_bruce/badlands_sax_solo_tab.html ]
E|----7---|-0--0--4-7--9--7----|-9--7---|---7----------|----7---|-
B|-9------|------------------9-|--------|-9----9-9--7--|-9------|-
G|--------|--------------------|--------|--------------|--------|-
D|--------|--------------------|--------|--------------|--------|-
A|--------|--------------------|--------|--------------|--------|-
E|--------|--------------------|--------|--------------|--------|-

E|-0-0-0-2-4--2--|-----0-0-|-2-4-7-7-7-7-7-4-2-2--|
B|---------------|---------|----------------------|
G|---------------|---------|----------------------|
D|---------------|-2-------|----------------------|
A|---------------|---------|----------------------|
E|---------------|---------|----------------------|



--------------------------------------------------------------------
Transcripted by Mareike E. (http://www.bruce-springsteen.tk)
For more questions and corrections email me at mybrucesite@yahoo.com
Comments