Springsteen Bruce - Back In Your Arms Chords & Tabs

 

Back In Your Arms Chords & Tabs

Springsteen Bruce Chords & Tabs

Version: 1 Type: Bass Tab 0 ratings
1 star 2 stars 3 stars 4 stars 5 stars
comments

Back In Your Arms Bass Tab

#----------------------------------PLEASE NOTE---------------------------------#
#This file is the author's own work and represents his interpretation of the   #
#song. You may only use this file for private study, scholarship, or research. #
#------------------------------------------------------------------------------#

BRUCE SPRINGSTEEN - BACK IN YOUR ARMS
  from the album "Tracks (CD 4)"



3x Intro
1x Verse
1x Chorus
1x Verse
2x Chorus
1x Bridge
1x Verse
2x Chorus
6x Intro (Sax-Solo/ fade out)


INTRO:
G|---------|---------|---------|---------|
D|---------|---------|---------|---------|
A|-3---3---|---------|---------|---------|
E|---------|-3---3---|-5---5---|-1---1---|
   1 2 3 4   1 2 3 4   1 2 3 4   1 2 3 4


VERSE:
G|---------|---------|---------|---------|
D|---------|---------|---------|---------|
A|-3---3---|---------|---------|---------|
E|---------|-3---3---|-5---5---|-1---1---|
   1 2 3 4   1 2 3 4   1 2 3 4   1 2 3 4

G|---------|---------|---------|---------|
D|---------|---------|---------|---------|
A|-3---3---|---------|---------|---------|
E|---------|-3---3---|-5---5---|-1---1---|
   1 2 3 4   1 2 3 4   1 2 3 4   1 2 3 4
[ Tab from: http://www.guitartabs.cc/tabs/s/springsteen_bruce/back_in_your_arms_btab.html ]
G|---------|---------|---------|---------|
D|---------|---------|---------|---------|
A|---------|---------|---------|---------|
E|-1---1---|-3---3---|-1---1---|-3---3---|
   1 2 3 4   1 2 3 4   1 2 3 4   1 2 3 4

G|---------|---------|
D|---------|---------|
A|---------|---------|
E|-1---1---|-3---3---|
   1 2 3 4   1 2 3 4


CHORUS:
G|---------|---------|---------|---------|
D|---------|---------|---------|---------|
A|-3---3---|---------|---------|---------|
E|---------|-3---3---|-5---5---|-1---1---|
   1 2 3 4   1 2 3 4   1 2 3 4   1 2 3 4

G|---------|---------|---------|---------|
D|---------|---------|---------|---------|
A|-3---3---|---------|---------|---------|
E|---------|-3---3---|-5---5---|-1---1---|
   1 2 3 4   1 2 3 4   1 2 3 4   1 2 3 4


BRIDGE:
G|---------|---------|---------|---------|
D|---------|---------|---------|---------|
A|---------|---------|---------|---------|
E|-1---1---|-3---3---|-5---5---|-1---1---|
   1 2 3 4   1 2 3 4   1 2 3 4   1 2 3 4

G|---------|---------|---------|---------|
D|---------|---------|---------|---------|
A|---------|---------|---------|---------|
E|-1---1---|-3---3---|-5---5---|-3---3---|
   1 2 3 4   1 2 3 4   1 2 3 4   1 2 3 4



--------------------------------------------------------------------
Transcripted by Mareike E. (http://www.bruce-springsteen.tk)
For more questions and corrections email me at mybrucesite@yahoo.com
Comments