Springbok Nude Girls - Blue Eyes Chords & Tabs

 

Blue Eyes Chords & Tabs

Springbok Nude Girls Chords & Tabs

Version: 2 Type: Tab 0 ratings
1 star 2 stars 3 stars 4 stars 5 stars
comments

Blue Eyes Tab

the other dude tabbed it all wrong
here's the right stuff
-2-----2-3-----3-|
-----3-------3---|
-0-0-----0-0-----| x2
-----------------|
-----------------|
-----------------|
then

-2-----2-3-----3-|
-----3-------3---|
-----------------| x2
-2-2-----2-2-----|
-----------------|
-----------------|
then
[ Tab from: http://www.guitartabs.cc/tabs/s/springbok_nude_girls/blue_eyes_tab_ver_2.html ]
-2-----2-3-----3--|
-----3-------3----|
------------------| x2
-0-0-----0-0------|
------------------|
------------------|
then

-2-3--|
------|
------|
-0-0--|
------|
------|

then repeat intro with distortion once
and then without distortion for verse,etc,etc...
listen to the song and you'll get it

email comments to thenarrow@mailbox.co.za
Comments