Spring Heeled Jack - Peg Leg Bates Chords & Tabs

 

Peg Leg Bates Chords & Tabs

Spring Heeled Jack Chords & Tabs

Version: 1 Type: Bass Tab 0 ratings
1 star 2 stars 3 stars 4 stars 5 stars
comments

Peg Leg Bates Bass Tab

   
PEG LEG BATES
--------------
by: Spring Heeled Jack
(ska / instrumental / bass tab)

tab written by: Adam Mihlfried (adamm@psu.edu)
===============================================

Main (played through most of the song w/ a slower version played at the ----	end of the song). 

G -------------
D -------------		Part A 
A -------2-----		x4
E -0--3-----3--

G -------------
D -------2-----		Part B
A -0--3-----3--		x2
E -------------

(Part A)		x2

G -------------
D ----0--4--0--		Part C
A -2-----------		x1
E -------------

(Part B)		x1
(Part A)		x1-2 [depends on where in song]

[REPEAT]

======================
"Jazz Type" Solo
--slow tempo--

G -------------
D -------------		Part #1
A -------0--2--         x3
E -0--3--------
[ Tab from: http://www.guitartabs.cc/tabs/s/spring_heeled_jack/peg_leg_bates_btab.html ]
G -------------
D -------------		Part #2
A -2--0--------		x1
E -------3--2--

G -------------
D -------0--2--		Part #3
A -0--3--------		x2
E -------------

(Part #1)		x1
(Part #2)		x1

G -------------
D ----0--2--4--		x1
A -2-----------
E -------------

(Part #3) 		x1
(Part #1)		x1
(Part #2)		x1
(Part #1)		x4

G ------------------------
D -------0--2--0--2--0--2-	x1
A -0--3-------------------
E ------------------------

(Part #1)		x1
(Part #2)		x1
(Part #3)		x1

G -------------
D -2--0--------
A -------3--2--		x1
E -------------			

(Part #1)
====================================
Back to "Main"


Thanks, 1st tab so don't be suprised if im a little off, if anyone has a different clue about this song, please email me too!  Anyhow I kept rewinding and listening to this song again and again to try and catch things.
Later,

Adam
adamm@psu.edu
Comments