Sportfreunde Stiller - Ich Roque Chords & Tabs

 

Ich Roque Chords & Tabs

Sportfreunde Stiller Chords & Tabs

Version: 1 Type: Tab 0 ratings
1 star 2 stars 3 stars 4 stars 5 stars
comments

Ich Roque Tab

ich roque
                            
von Sportfreunde Stiller

vom neuen Album 'burli'

transcribiert von Christian Reindel(creindel@gmx.de) 

Version 1 (08.06.04)


Standard Tuning


    Riff 1  - 4 x    der Modefreak jubiliert ...
E |-------------------------------------------------------------------------|
B |-------------------------------------------------------------------------|
G |---------------------------------------------------------------------5---|
D |--------------------------------------------------7-/-5--7---5-/-7--3---|
A |--------------------------------------------------5-/-3--5---3-/-5------|
E |-5-5-5-5-5-5-5-5-5-5-5-5-5-5-5-5-5-5-5-5-5-5-5-5-------------------------|


   Riff 2 - 1 x   doch nur Einem gebühren diese Worte ...
E |-------------------------------------------------------------------------|
B |-------------------------------------------------------------------------|
G |-------------------------------------------------------------------------|
D |-------------------------------------------------------------------------|
A |-------------------------------------------------------------------------|
E |-3-3-3-3-3-3-3-3-3-3-3-3-3-3-3-3-1-1-1-1-1-1-1-1-1-1-1-1-1-1-1-1---------|

                                                          
                                                         ich roque
E |-------------------------------------------------------------------------|
B |-------------------------------------------------------------------------|
G |-------------------------------------------------------------------------|
D |-------------------------------------------------------------------------|
A |-------------------------------------------------------------------------|
E |-3-3-3-3-3-3-3-3-3-3-3-3-3-3-3-3-1-1-1-1-1-1-1-1-1-----------------------|


  Riff 3 - 4 x 

   gitarre 1
E |-------------------------------------------------------|
B |-------------------------------------------------------|
G |-------------------------------------------------------|
D |--5---5--5--5---------------7---7--7--7----------------|
A |--3---3--3--3----5--5-------5---5--5--5----3--3--------|
E |-----------------3--3----------------------1--1--------|

   gitarre 2  ( Keyboard arr. für gitarre) 
E |-------------------------------------------------------|
B |-------------------------------------------------------|
G |-------------------------------------------------------|
D |-10-10-10-/-12--10------------------------------------|
A |--------------------12------12-12-12--12-/-10--12-----|
E |-------------------------------------------------------|

[ Tab from: http://www.guitartabs.cc/tabs/s/sportfreunde_stiller/ich_roque_tab.html ]
  zurück zum Riff 1 - 1x mit gitarre 2 
   
   gitarre 1
E |-------------------------------------------------------------------------|
B |-------------------------------------------------------------------------|
G |---------------------------------------------------------------------5---|
D |--------------------------------------------------7-/-5--7---5-/-7--3---|
A |--------------------------------------------------5-/-3--5---3-/-5------|
E |-5-5-5-5-5-5-5-5-5-5-5-5-5-5-5-5-5-5-5-5-5-5-5-5-------------------------|

   gitarre 2
E |-------------------------------------------------------------------------|
B |-------------------------------------------------------------------------|
G |---------------------------------------------------------------------5---|
D |-7-7-7-7--5-7-5--7-7-7-7--5-7-5--7-7-7-7--5-7-5---7-/-5--7---5-/-7--3---|
A |--------------------------------------------------5-/-3--5---3-/-5------|
E |-------------------------------------------------------------------------|


  Vers 2 mit Riff 1 - 2x   die coolen kids reagiern...

  dann Riff 2 - 1x   doch nur Einem gebühren diese Worte ... 

  dann Riff 3 - 4x


  dann Riff 4 - 4x - akustische gitarre - el dali mundo ...(kann kein spanisch)

E |--------------0---------------------1--------------------|
B |---1----------3----------3----------1--------------------|
G |---0----------0----------2----------2--------------------|
D |---2----------0----------0----------3--------------------|
A |---3----------2---------------------3--------------------|
E |--------------3---------------------1--------------------|


 zurück zum Riff 3 - 6x

 Outro
 
  Riff 3a - 1 x 

   gitarre 1
E |----------------------------------------------------------------------------------------------------|
B |----------------------------------------------------------------------------------------------------|
G |----------------------------------------------------------------------------------------------------|
D |--5---5--5--5---------------7---7--7--7--------------5---5--5--5---------------7---7--7--7----------|
A |--3---3--3--3----5--5-------5---5--5--5----3--3------3---3--3--3----5--5-------5---5--5--5----3--3--|
E |-----------------3--3----------------------1--1---------------------3--3----------------------1--1--|

   gitarre 2  ( Keyboard arr. für gitarre) 
E |--------------------------------------------------------------------8--7-------8--------------13----|
B |------------------------------------------10--8------8---8--8--8------------------------------------|
G |----------------10-9--------9---9--9--9-------------------------------------------------------------|
D |--10--10-10-10--------------------------------------------------------------------------------------|
A |----------------------------------------------------------------------------------------------------|
E |----------------------------------------------------------------------------------------------------|

Ende.

Comments