Sportfreunde Stiller - Fruhling Chords & Tabs

 

Fruhling Chords & Tabs

Sportfreunde Stiller Chords & Tabs

Version: 1 Type: Tab 0 ratings
1 star 2 stars 3 stars 4 stars 5 stars
comments

Fruhling Tab

   
-------------------------------------------------------------------------------
			 FRÜHLING - Sportfreunde Stiller
-------------------------------------------------------------------------------
Tabbed by: strungout777
Email: manuel_ramones4life@gmx.at 

Tuning: e B G D A e


Intro:

e|------------------------------------------------|
B|---5----5------5----5------8----8------7----7---|
G|-4----4---4--5----5---5--7----7---7--7----7---7-|
D|-2----2---2--5----5---5--5----5---5--7----7---7-|
A|------------------------------------------------|
E|------------------------------------------------|

e|------------------------------------------------|
B|---5----5------5----5------8----8----7--7--7--7-|
G|-4----4---4--5----5---5--7----7---7--7--7--7--7-|
D|-2----2---2--5----5---5--5----5---5--7--7--7--7-|
A|------------------------------------------------|
E|------------------------------------------------|

e, C, G, Hb

Verse1:

e                C                G
. . Ich hoff der ganze Frust verschwindet
            Hb              e
Der mich zu lange schon umgibt
         C             G
Ich wäre gerne ein Magnet 
    Hb                e 
Der warmes Licht anzieht
           C                 G
Was unterm Schnee verborgen lag
                 Hb           e
Bringt dann die Sonne an den Tag
       C          G
Viele mögliche Ideen
              Hb                  C
Ach könnt ich doch die Zeit vordrehn


Chorus:

e                    C              G
. . Und ich wart mal wieder auf den Frühling
               Hb           e
Man kann nicht nur traurige Lieder singn
          C                 G
Doch bald werden sie wieder anders klingn
         Hb                    C
Wenn die ersten Sonnenstrahlen Wärme bringn


Verse2:
[ Tab from: http://www.guitartabs.cc/tabs/s/sportfreunde_stiller/fruhling_tab.html ]
    e              C                G
Die alten winterkalten Gedanken verfliegen
    Hb                e 
Wie Rauch im lauen Wind
         C              G
Wenn wir in den Wiesen liegen
          Hb          e
Und etwas Neues beginnt
          C                      G
Ich finde wieder die richtigen Worte
           Hb                    e
Ich treffe wieder den richtigen Ton
             C               G 
Ich kann dem Drang nicht widerstehn
              Hb                  C
Ach könnt ich doch die Zeit vordrehn


Bridge:

e|------------------------------------------------|
B|---5----5------5----5------8----8------7----7---|
G|-4----4---4--5----5---5--7----7---7--7----7---7-|
D|-2----2---2--5----5---5--5----5---5--7----7---7-|
A|------------------------------------------------|
E|------------------------------------------------|

e|------------------------------------------------|
B|---5----5------5----5------8----8------7----7---|
G|-4----4---4--5----5---5--7----7---7--7----7---7-|
D|-2----2---2--5----5---5--5----5---5--7----7---7-|
A|------------------------------------------------|
E|------------------------------------------------|

e|-----------------------------------------------14--10--7--3-|
B|------------------------------------------------------------|
G|-------3-1-------------------------2-5-4-2------------------|
D|-2-2-2-----4---2-4~--------2-2-2-5---------5~---------------|
A|-------------5----------------------------------------------|
E|------------------------------------------------------------|

C

Refrain:

Outro:
e, C, G, Hb, e, C, G, Hb, C, e




Chords:
    e     C     G     Hb
e|--0-----3-----3-----2--|
B|--0-----5-----3-----3--|
G|--1-----5-----4-----4--|
D|--2-----5-----5-----4--|
A|--2-----3-----5-----2--|
E|--0-----3-----3-----x--|

The Rhythm isn't difficult! Listen to the song to get it out!

| /  slide up
| \  slide down
| h  hammer-on
| p  pull-off
| ~  vibrato
| +  harmonic
| x  Mute note
===============================================================================
Comments