Spooner - Sleep Out Under The Stars Chords & Tabs

 

Sleep Out Under The Stars Chords & Tabs

Spooner Chords & Tabs

Version: 2 Type: Tab 0 ratings
1 star 2 stars 3 stars 4 stars 5 stars
comments

Sleep Out Under The Stars Tab

   
#----------------------------------PLEASE NOTE---------------------------------#
#This file is the author's own work and represents their interpretation of the #
#song. You may only use this file for private study, scholarship, or research. #
#------------------------------------------------------------------------------##
From: arabella@mail.utexas.edu (Arabella Clauson)
Subject: TAB: "Sleep Out Under The Stars" by Spooner
Status: RO

This is definitely not entirely accurate, so please send me corrections.  I
doubt that many people actually own this CD, but it's a really good one if
you find it.

Title: Sleep Out Under The Stars
Artist: Spooner
Album: The Fugitive Dance, (Chameleon 1990)
-------------------------------------------

E|------3---3-------2--2-----0--0---|-----0-0-------0--0------0--0----2--|
B|------0---0-------3--3-----1--1---|-----1-1-------1--1------1--1----3--|
G|------0---0-------2--2-----0--0---|-----0-0-------2--2------0--0----2--|
D|------0---0----0--0--0-----2--2---|--2--2-2-------2--2---2--2--2--0-0--|
A|------2---2--------------3-3--3---|-----3-3----0--0--0------3--3-------|
E|--3---3---3-----------------------|------------------------------------|

        G           D        C           C           Am         C      D


Arpeggio:
[ Tab from: http://www.guitartabs.cc/tabs/s/spooner/sleep_out_under_the_stars_tab_ver_2.html ]
|------------------------3--------------||
|-----------------3-0-3-----------------||
|-----------2-0-2-----------------------||
|----2-0-2------------------------------||
|---------------------------------------||
|---------------------------------------||

       G          D          C
Gonna sleep out under the stars tonight
        C      Am              C        D
Gonna make my bed beneath the clear moonlight
        G         D         C
Gonna sleep out under the stars tonight
       C          Am
Gonna build me a fire
       C        D
Gonna burn it bright

I have heard stories of days gone before me
When trouble was lost in the wond
May the morning sun wake me
Or let the night take me awa---a-----ay
Gonna sleep out under the stars tonight
Gonna find new strength in the clear moonlight
Gonna sleep out under the stars
Where the true world waits
And the wild things are
Wanna lie unprotected
Wanne feel reconnected
Let my troubles be lost in the wind
May the morning sun wake me
Or let the night take me away-ay-ay

(instrumental)        me away-ay-ay

Gonna sleep out under the stars tonight
Gonna sleep out under the stars tonight
Me away-ay-ay
Me away-ay-ay

-- -- -- -- -- --
Arabella Clauson
arabella@mail.utexas.edu
http://ccwf.cc.utexas.edu/~arabella/index.html
Comments