Spoon - Way We Get By Chords & Tabs

 

Way We Get By Chords & Tabs

Spoon Chords & Tabs

Version: 1 Type: Bass Tab 0 ratings
1 star 2 stars 3 stars 4 stars 5 stars
comments

Way We Get By Bass Tab

Spoon- The Way We Get By
Chris Gillespie
jirolico@gmail.com

G|2-25-2-2-2-2-----------------2-2-2-2---------------------------------------|
D|-5-----------5-5-5-5-3-3-3-3-----------------------------------------------|
A|---------------------------------------------------------------------------|
E|---------------------------------------------------------------------------|

Piano break

G|---------------------------------------------------------------------------|
D|---------------------------------------------------------------------------|
A|-------3-3----3-3---3-3----------------------------------------------------|
E|-5-5-5--5--5~--5--5~-5-----------------------------------------------------|

Repeat this a few times
G|---------------------------------------------------------------------------|
D|---------------------------------------------------------------------------|
A|---------------------------------------------------------------------------|
E|5-5-5-5-3-3-3-3-0-0-0-0-3-3-3-3--------------------------------------------|

:56
G|2222222222222222-----------------------------------------------------------|
D|---------------------------------------------------------------------------|
A|---------------------------------------------------------------------------|
E|---------------------------------------------------------------------------|
[ Tab from: http://www.guitartabs.cc/tabs/s/spoon/way_we_get_by_btab.html ]
G|---------------------------------------------------------------------------|
D|---------------------------------------------------------------------------|
A|-------3-3----3-3---3-3----------------------------------------------------|
E|-5-5-5--5--5~--5--5~-5-----------------------------------------------------|

G|-2-2-2-2-----------------2-2-2-2-------------------------------------------|
D|---------5-5-5-5-3-3-3-3---------------------------------------------------|
A|---------------------------------------------------------------------------|
E|---------------------------------------------------------------------------|

G|---------------------------------------------------------------------------|
D|---------------------------------------------------------------------------|
A|-------3-3----3-3---3-3----------------------------------------------------|
E|-5-5-5--5--5~--5--5~-5-----------------------------------------------------|

Piano break

G|-2-2-2-2-----------------2-2-2-2-------------------------------------------|
D|---------5-5-5-5-3-3-3-3---------------------------------------------------|
A|---------------------------------------------------------------------------|
E|---------------------------------------------------------------------------|

Repeat this a few times
G|---------------------------------------------------------------------------|
D|---------------------------------------------------------------------------|
A|---------------------------------------------------------------------------|
E|5-5-5-5-3-3-3-3-0-0-0-0-3-3-3-3--------------------------------------------|

G|---------------------------------------------------------------------------|
D|---------------------------------------------------------------------------|
A|-------3-3----3-3---3-3----------------------------------------------------|
E|-5-5-5--5--5~--5--5~-5-----------------------------------------------------|
Comments