Sponge Cola - Una Chords & Tabs

 

Una Chords & Tabs

Sponge Cola Chords & Tabs

Version: 2 Type: Tab

Una Tab

Title       : Una
Artist      : Sponge cola
Album       : Palabas

Ear tabber  : Walter Michael De la Cruz 
E-mail add 1: Walterfdelacruz@yahoo.com
E-mail add 2: Michaelfdelacruz@yahoo.com 
Contact no  : 09224012464
School      : Saint Louis University, Baguio city
Time Elapsed: 5:48 PM - 6:02 PM
Date	    : November 10, 2005


=Intro 1=

Guitar 1: Electric guitar(clean)

Note: Quick plucking!!! 
      Just listen to the song carefully for progressions


e|-----6---6-------6---6-------6---|
B|---7---7---7---7---7---7---7---7-|
G|-8-----------8-----------8-------|
D|---------------------------------|
A|---------------------------------|
E|---------------------------------|

e|----6---6-------6---6-------6----|
B|--6---6---6---6---6---6---6---6--|
G|6-----------6-----------6--------|
D|---------------------------------|
A|---------------------------------|
E|---------------------------------|

e|-----6---6---6---7---7---9---9---|
B|---7---7---7---7---7---7---7---7-|
G|-8-------------------------------|
D|---------------------------------|
A|---------------------------------|
E|---------------------------------|


e|----6---6-------7-----------6----|
B|--6---6---6---6---6---6----------|
G|6-----------6-------6------------|
D|---------------------------------|
A|---------------------------------|
E|---------------------------------|


=Intro 2=


Guitar 1: Electric guitar(clean)

     
e|-------6-----6-----6-----|
B|----7-----7-----7-----7--|
G|-8-----------------------|
D|-------------------------|
A|-------------------------|
E|-------------------------|

Guitar 2: Nylon/Classical guitar(preferrably)
nOTE: ALL Strumming of nylon guitar is alternate forward and
backward strum. 2 forward then 2 backward then 2 forward.

 
e|-XX-6-6--6-6--6-6-XX-----|
B|-XX-7-7--7-7--7-7-XX-----|
G|-XX-8-8--8-8--8-8-XX-----|
D|-XX-9-9--9-9--9-9-XX-----|
A|-XX-X-X--X-X--X-X-XX-----|
E|-XX 7-7--7-7--7-7-XX-----|

Guitar 1: Electric guitar(clean)

e|-------6-----6-----6-----|
B|----6-----6-----6-----6--|
G|-6-----------------------|
D|-------------------------|
A|-------------------------|
E|-------------------------|

Guitar 2: Nylon/Classical guitar

e|--6---6---6---6---6---6--|
B|--6---6---6---6---6---6--|
G|--6---6---6---6---6---6--|
D|--8---8---8---8---8---8--|
A|--8---8---8---8---8---8--|
E|--6---6---6---6---6---6--|


Guitar 1: Electric guitar(clean)

e|-------6-----7-----9-----|
B|----7-----7-----7-----7--|
G|-8-----------------------|
D|-------------------------|
A|-------------------------|
E|-------------------------|

Guitar 2: Nylon/Classical guitar
 
e|-XX-6-6--6-6--6-6-XX-----|
B|-XX-7-7--7-7--7-7-XX-----|
G|-XX-8-8--8-8--8-8-XX-----|
D|-XX-9-9--9-9--9-9-XX-----|
A|-XX-X-X--X-X--X-X-XX-----|
E|-XX 7-7--7-7--7-7-XX-----|

Guitar 1: Electric guitar(clean)

e|-------6-----6-----6-----|
B|----6-----6-----6-----6--|
G|-6-----------------------|
D|-------------------------|
A|-------------------------|
E|-------------------------|

Guitar 2: Nylon/Classical guitar

e|--6---6---6---6---6---6--|
B|--6---6---6---6---6---6--|
G|--6---6---6---6---6---6--|
D|--8---8---8---8---8---8--|
A|--8---8---8---8---8---8--|
E|--6---6---6---6---6---6--|


==Verse1==

Guitar 1: Electric guitar(clean)

     
e|-------6-----6-----6-----|
B|----7-----7-----7-----7--|
G|-8-----------------------|
D|-------------------------|
A|-------------------------|
E|-------------------------|

Guitar 2: Nylon/Classical guitar

 
e|-XX-6-6--6-6--6-6-XX-----|
B|-XX-7-7--7-7--7-7-XX-----|
G|-XX-8-8--8-8--8-8-XX-----|
D|-XX-9-9--9-9--9-9-XX-----|
A|-XX-X-X--X-X--X-X-XX-----|
E|-XX 7-7--7-7--7-7-XX-----|
      Muli namang


Guitar 1: Electric guitar(clean)

e|-------6-----6-----6-----|
B|----6-----6-----6-----6--|
G|-6-----------------------|
D|-------------------------|
A|-------------------------|
E|-------------------------|

Guitar 2: Nylon/Classical guitar

e|--6---6---6---6---6---6--|
B|--6---6---6---6---6---6--|
G|--6---6---6---6---6---6--|
D|--8---8---8---8---8---8--|
A|--8---8---8---8---8---8--|
E|--6---6---6---6---6---6--|
      umihip sa akin

Guitar 1: Electric guitar(clean)

e|-------6-----7-----9-----|
B|----7-----7-----7-----7--|
G|-8-----------------------|
D|-------------------------|
A|-------------------------|
E|-------------------------|


Guitar 2: Nylon/Classical guitar
 
e|-XX-6-6--6-6--6-6-XX-----|
B|-XX-7-7--7-7--7-7-XX-----|
G|-XX-8-8--8-8--8-8-XX-----|
D|-XX-9-9--9-9--9-9-XX-----|
A|-XX-X-X--X-X--X-X-XX-----|
E|-XX 7-7--7-7--7-7-XX-----|
     Ang hangin  


Guitar 1: Electric guitar(clean)

e|-------6-----6-----6-----|
B|----6-----6-----6-----6--|
G|-6-----------------------|
D|-------------------------|
A|-------------------------|
E|-------------------------|

Guitar 2: Nylon/Classical guitar

e|--6---6---6---6---6---6--|
B|--6---6---6---6---6---6--|
G|--6---6---6---6---6---6--|
D|--8---8---8---8---8---8--|
A|--8---8---8---8---8---8--|
E|--6---6---6---6---6---6--|
     ng pag-iisa


Guitar 1: Electric guitar(clean)

     
e|-------6-----6-----6-----|
B|----7-----7-----7-----7--|
G|-8-----------------------|
D|-------------------------|
A|-------------------------|
E|-------------------------|

Guitar 2: Nylon/Classical guitar

 
e|-XX-6-6--6-6--6-6-XX-----|
B|-XX-7-7--7-7--7-7-XX-----|
G|-XX-8-8--8-8--8-8-XX-----|
D|-XX-9-9--9-9--9-9-XX-----|
A|-XX-X-X--X-X--X-X-XX-----|
E|-XX 7-7--7-7--7-7-XX-----|
     Liwanag kang 


Guitar 1: Electric guitar(clean)

e|-------6-----6-----6-----|
B|----6-----6-----6-----6--|
G|-6-----------------------|
D|-------------------------|
A|-------------------------|
E|-------------------------|

Guitar 2: Nylon/Classical guitar

e|--6---6---6---6---6---6--|
B|--6---6---6---6---6---6--|
G|--6---6---6---6---6---6--|
D|--8---8---8---8---8---8--|
A|--8---8---8---8---8---8--|
E|--6---6---6---6---6---6--|
      dag ling sum ilaw

Guitar 1: Electric guitar(clean)

e|-------6-----7-----9-----|
B|----7-----7-----7-----7--|
G|-8-----------------------|
D|-------------------------|
A|-------------------------|
E|-------------------------|


Guitar 2: Nylon/Classical guitar
 
e|-XX-6-6--6-6--6-6-XX-----|
B|-XX-7-7--7-7--7-7-XX-----|
G|-XX-8-8--8-8--8-8-XX-----|
D|-XX-9-9--9-9--9-9-XX-----|
A|-XX-X-X--X-X--X-X-XX-----|
E|-XX 7-7--7-7--7-7-XX-----|
        sa'king mga
   

Guitar 1: Electric guitar(clean)

e|-------6-----6-----6-----|
B|----6-----6-----6-----6--|
G|-6-----------------------|
D|-------------------------|
A|-------------------------|
E|-------------------------|

Guitar 2: Nylon/Classical guitar
[ Tab from: http://www.guitartabs.cc/tabs/s/sponge_cola/una_tab_ver_2.html ]
e|--6---6---6---6---6---6--|
B|--6---6---6---6---6---6--|
G|--6---6---6---6---6---6--|
D|--8---8---8---8---8---8--|
A|--8---8---8---8---8---8--|
E|--6---6---6---6---6---6--|
        m---a---t---a


Refrain:(Tabs are just the same in the verse)


Nililingon
Sinusundan
Dumadalas ang minsan
Ika'y nar'yan
Abot tanaw
Kahit walang dahilan...


 -------
( Chorus )
 -------


Guitar 1: Electric guitar (with distortion)

e|-------------X-X-X-X-X-X-X-X-X-X-X----------|
B|-------------X-X-X-X-X-X-X-X-X-X-X----------|
G|-------------X-X-X-X-X-X-X-X-X-X-X----------|
D|-------------9-9-9-9-9-9-9-9-9-9-9----------|
A|-------------9-9-9-9-9-9-9-9-9-9-9----------|
E|-------------7-7-7-7-7-7-7-7-7-7-7----------|
  Maiiwasan bang Ang bawat sandaling

e|-------------X-X-X-X-X-X-X-X-X-X-X----------|
B|-------------X-X-X-X-X-X-X-X-X-X-X----------|
G|-------------X-X-X-X-X-X-X-X-X-X-X----------|
D|-------------8-8-8-8-8-8-8-8-8-8-8----------|
A|-------------8-8-8-8-8-8-8-8-8-8-8----------|
E|-------------6-6-6-6-6-6-6-6-6-6-6----------|
               ika'y laman ng isip ko

e|-------------X-X-X-X-X-X-X-X-X-X-X----------|
B|-------------X-X-X-X-X-X-X-X-X-X-X----------|
G|-------------X-X-X-X-X-X-X-X-X-X-X----------|
D|-------------9-9-9-9-9-9-9-9-9-9-9----------|
A|-------------9-9-9-9-9-9-9-9-9-9-9----------|
E|-------------7-7-7-7-7-7-7-7-7-7-7----------|
  Maiiwasan bang Ngayo'y lilipas na 

e|-------------X-X-X-X-X-X-X-X-X-X-X----------|
B|-------------X-X-X-X-X-X-X-X-X-X-X----------|
G|-------------X-X-X-X-X-X-X-X-X-X-X----------|
D|-------------8-8-8-8-8-8-8-8-8-8-8----------|
A|-------------8-8-8-8-8-8-8-8-8-8-8----------|
E|-------------6-6-6-6-6-6-6-6-6-6-6----------|
             nang hindi kita nasisilayan

e|-------------X-X-X-X-X-X-X-X-X-X-X----------|
B|-------------X-X-X-X-X-X-X-X-X-X-X----------|
G|-------------X-X-X-X-X-X-X-X-X-X-X----------|
D|-------------9-9-9-9-9-9-9-9-9-9-9----------|
A|-------------9-9-9-9-9-9-9-9-9-9-9----------|
E|-------------7-7-7-7-7-7-7-7-7-7-7----------|
    Nagkamali sayo  Nararapat bang    

e|-------------X-X-X-X-X-X-X-X-X-X-X----------|
B|-------------X-X-X-X-X-X-X-X-X-X-X----------|
G|-------------X-X-X-X-X-X-X-X-X-X-X----------|
D|-------------8-8-8-8-8-8-8-8-8-8-8----------|
A|-------------8-8-8-8-8-8-8-8-8-8-8----------|
E|-------------6-6-6-6-6-6-6-6-6-6-6----------|
           pigilan ang damdamin na

e|-------------X-X-X-X-X-X-X-X-X-X-X----------|
B|-------------X-X-X-X-X-X-X-X-X-X-X----------|
G|-------------X-X-X-X-X-X-X-X-X-X-X----------|
D|-------------9-9-9-9-9-9-9-9-9-9-9----------|
A|-------------9-9-9-9-9-9-9-9-9-9-9----------|
E|-------------7-7-7-7-7-7-7-7-7-7-7----------|
  Maiiwasan bang  Lalung mahulog 

e|-------------X-X-|
B|-------------X-X-|
G|-------------X-X-|
D|-------------8-8-|
A|-------------8-8-|
E|-------------6-6-|
              sa'yo  


Verse 2: (the same in verse 1)

Guitar 1: Electric guitar (with distortion)


Walang maitutulad sa sumpang iyong nilikha
Putulin man ang tali ay sadyang walang kawala
  


e|--------------X-X-X-X-X-X-X-X-X-------|
B|--------------X-X-X-X-X-X-X-X-X-------|
G|--------------7-7-7-7-7-7-7-7-7-------|
D|--------------X-X-X-X-X-X-X-X-X-------|
A|--------------5-5-5-5-5-5-5-5-5-------|
E|--------------------------------------|
                 Sa pagkaakit

e|-------------X-X-X-X-X-X-X-X-X-X-X----|
B|-------------X-X-X-X-X-X-X-X-X-X-X----|
G|-------------X-X-X-X-X-X-X-X-X-X-X----|
D|-------------4-4-4-4-4-4-4-4-4-4-4----|
A|-------------4-4-4-4-4-4-4-4-4-4-4----|
E|-------------2-2-2-2-2-2-2-2-2-2-2----|
              at di pag lapit

e|--------------X-X-X-X-X-X-X-X-X-------|
B|--------------X-X-X-X-X-X-X-X-X-------|
G|--------------7-7-7-7-7-7-7-7-7-------|
D|--------------X-X-X-X-X-X-X-X-X-------|
A|--------------5-5-5-5-5-5-5-5-5-------|
E|--------------------------------------|
                Nananalangin 

e|-------------X-X-X-X-X-X-X-X-X-X-X----|
B|-------------X-X-X-X-X-X-X-X-X-X-X----|
G|-------------X-X-X-X-X-X-X-X-X-X-X----|
D|-------------4-4-4-4-4-4-4-4-4-4-4----|
A|-------------4-4-4-4-4-4-4-4-4-4-4----|
E|-------------2-2-2-2-2-2-2-2-2-2-2----|
                at umaasa..


 -------
( Chorus )
 -------


Guitar 1: Electric guitar (with distortion)

e|-------------X-X-X-X-X-X-X-X-X-X-X----------|
B|-------------X-X-X-X-X-X-X-X-X-X-X----------|
G|-------------X-X-X-X-X-X-X-X-X-X-X----------|
D|-------------9-9-9-9-9-9-9-9-9-9-9----------|
A|-------------9-9-9-9-9-9-9-9-9-9-9----------|
E|-------------7-7-7-7-7-7-7-7-7-7-7----------|
  Maiiwasan bang Ang bawat sandaling

e|-------------X-X-X-X-X-X-X-X-X-X-X----------|
B|-------------X-X-X-X-X-X-X-X-X-X-X----------|
G|-------------X-X-X-X-X-X-X-X-X-X-X----------|
D|-------------8-8-8-8-8-8-8-8-8-8-8----------|
A|-------------8-8-8-8-8-8-8-8-8-8-8----------|
E|-------------6-6-6-6-6-6-6-6-6-6-6----------|
               ika'y laman ng isip ko

e|-------------X-X-X-X-X-X-X-X-X-X-X----------|
B|-------------X-X-X-X-X-X-X-X-X-X-X----------|
G|-------------X-X-X-X-X-X-X-X-X-X-X----------|
D|-------------9-9-9-9-9-9-9-9-9-9-9----------|
A|-------------9-9-9-9-9-9-9-9-9-9-9----------|
E|-------------7-7-7-7-7-7-7-7-7-7-7----------|
  Maiiwasan bang Ngayo'y lilipas na 

e|-------------X-X-X-X-X-X-X-X-X-X-X----------|
B|-------------X-X-X-X-X-X-X-X-X-X-X----------|
G|-------------X-X-X-X-X-X-X-X-X-X-X----------|
D|-------------8-8-8-8-8-8-8-8-8-8-8----------|
A|-------------8-8-8-8-8-8-8-8-8-8-8----------|
E|-------------6-6-6-6-6-6-6-6-6-6-6----------|
             nang hindi kita nasisilayan

e|-------------X-X-X-X-X-X-X-X-X-X-X----------|
B|-------------X-X-X-X-X-X-X-X-X-X-X----------|
G|-------------X-X-X-X-X-X-X-X-X-X-X----------|
D|-------------9-9-9-9-9-9-9-9-9-9-9----------|
A|-------------9-9-9-9-9-9-9-9-9-9-9----------|
E|-------------7-7-7-7-7-7-7-7-7-7-7----------|
    Nagkamali sayo  Nararapat bang    

e|-------------X-X-X-X-X-X-X-X-X-X-X----------|
B|-------------X-X-X-X-X-X-X-X-X-X-X----------|
G|-------------X-X-X-X-X-X-X-X-X-X-X----------|
D|-------------8-8-8-8-8-8-8-8-8-8-8----------|
A|-------------8-8-8-8-8-8-8-8-8-8-8----------|
E|-------------6-6-6-6-6-6-6-6-6-6-6----------|
           pigilan ang damdamin na

e|-------------X-X-X-X-X-X-X-X-X-X-X----------|
B|-------------X-X-X-X-X-X-X-X-X-X-X----------|
G|-------------X-X-X-X-X-X-X-X-X-X-X----------|
D|-------------9-9-9-9-9-9-9-9-9-9-9----------|
A|-------------9-9-9-9-9-9-9-9-9-9-9----------|
E|-------------7-7-7-7-7-7-7-7-7-7-7----------|
  Maiiwasan bang  Lalung mahulog 

e|-------------X-X-|
B|-------------X-X-|
G|-------------X-X-|
D|-------------8-8-|
A|-------------8-8-|
E|-------------6-6-|
              sa'yo  


Adlib: Di ko na kinapa ung adlib, Diskarte nyo na.
repeat chorus


For comments send me a message in Friendster. 

E-mail add 1: Walterfdelacruz@yahoo.com
E-mail add 2: Michaelfdelacruz@yahoo.com 

And u Can also add me as your friend Or send me a testimonial.hehehe
God bless!