Sponge Cola - Stones Throw Chords & Tabs

 

Stones Throw Chords & Tabs

Sponge Cola Chords & Tabs

Version: 2 Type: Tab 0 ratings
1 star 2 stars 3 stars 4 stars 5 stars
comments

Stones Throw Tab

   
Song: Stone's throw
Artist: Sponge Cola
Album: Palabas
Submitted by: bogey

Intro:

E|--------------------------------|
B|--------------------------------|
G|--------7-7-7-6---6-6h7-6-------|
D|----9-9---------7---------------|
A|----9-9-------------------------| 3x
E|----7-7-------------------------|

E|-----------------|
B|-----------------|
G|-----------------|
D|---5-----2-------|
A|---5-----2-------|
E|---3-------------|

Verse: 
D-A-G-A 2x (power chords)

Refrain:
C-Bm
C-Bm-D

Chorus:
[ Tab from: http://www.guitartabs.cc/tabs/s/sponge_cola/stones_throw_tab_ver_2.html ]
E|-----------------------------------------------------------|
B|-----------------------------------------------------------|
G|---7---5555/7---7---5555-----------------------------------|
D|---7---5555/7---7---5555------------5------------7---------|
A|---5---3333/5---5---3333------------5------------7---------|
E|------------------------------------3------------5---------|
   Tear these skies with fireflies, take a trip to paradise

E|--------------------------------------------------------------------|
B|--------------------------------------------------------------------|
G|---7---5555/7---7---5555--------------------------------------------|
D|---7---5555/7---7---5555------------------5---------------7---------|
A|---5---3333/5---5---3333------------------5---------------7---------|
E|------------------------------------------3---------------5---------|
   No surprise you've got drenches in your eyes maybe this is paradise


E|----------------------------|
B|----------------------------|
G|----------------------------|
D|--5---------------7---------|
A|--5---------------7---------|
E|--3---------------5---------|
  Maybe this is paradise

Verse 2:
D-A-G-A 2x (power chords)

Repeat refrain

Repeat chorus

Repeat intro

Adlib:
Do verse chords

Repeat chorus

: That's it! Paki-rate na lang pls... :
Comments