Sponge Cola - Partisan Chords & Tabs

 

Partisan Chords & Tabs

Sponge Cola Chords & Tabs

Version: 3 Type: Tab 0 ratings
1 star 2 stars 3 stars 4 stars 5 stars
comments

Partisan Tab

   
Song: Partisan
Artist: Sponge Cola
Album: Palabas
Submitted by: bogey

Intro:

E|-----------8-----8----8-----8---8-----8-----8----8-----8---8-----|
B|--5-5h6-8---8-6-6-5---5-6---6-----8---8-6-6-5---5-6---6-------|
G|-----------------------------------------------------------------|
D|-----------------------------------------------------------------|
A|-----------------------------------------------------------------|
E|-----------------------------------------------------------------|


E|-----8-----8----8-----8---8-----8-----8----8-----8---8-----------|
B|--8---8-6-6-5---5-6---6-----8---8-6-6-5---5-6---6-------------|
G|-----------------------------------------------------------------|
D|-----------------------------------------------------------------|
A|-----------------------------------------------------------------|
E|-----------------------------------------------------------------|

Verse:
Do these chords:
C-Em-Am-F

Refrain:

E|----------------------------------------------------|
B|----------------------------------------------------|
G|----5----------------------9------------------------|
D|----5----------------------9------------------------|
A|----3----------------------7------------------------|
E|----------------------------------------------------|
   But as I change and as I age I left it all behind
[ Tab from: http://www.guitartabs.cc/tabs/s/sponge_cola/partisan_tab_ver_3.html ]
E|-------------------------------------------------|
B|-------------------------------------------------|
G|-------------------------------------------------|
D|----5--------------------------------3-----------|
A|----5--------------------------------3-----------|
E|----3--------------------------------1-----------|
   Cause now your calls seem kind of mellow, kind of mellow, kind of mellow...

Chorus:

E|----------------------------------------------------------|
B|----------------------------------------------------------|
G|----5---------------------------------------------9-------|
D|----5---------------------------------------------9-------|
A|----3---------------------------------------------7-------|
E|----------------------------------------------------------|
    Will I run to you (even if I'm losing hours), will I run to you

E|----------------------------------------------------|
B|----------------------------------------------------|
G|----------------------------------------------------|
D|--------------------------5-------------3-----------|
A|--------------------------5-------------3-----------|
E|--------------------------3-------------1-----------|
    (even if I'm losing hours of sleep) today

Repeat intro

Verse 2:
Do these chords: 
C-Em-Am-F

Refrain 2:
Do Refrain power chords

About this regular guy with regular goals
And regular dreams go insane
Cause he doesn't know where to go, where to go
Where to go

Repeat chorus

Bridge:
Do these chords: Am-G-F (power chords)

Repeat chorus 2x

Outro:

E|---------------------------|
B|---------------------------|
G|-----5---------------------|
D|-----5----6----7----3------|
A|-----3----6----7----3------| 2x
E|----------4----5----1------|
Comments