Sponge Cola - On The Floor Chords & Tabs

 

On The Floor Chords & Tabs

Sponge Cola Chords & Tabs

Version: 1 Type: Tab 0 ratings
1 star 2 stars 3 stars 4 stars 5 stars
comments

On The Floor Tab

   
Song: On The Floor
Artist/Band:  Sponge Cola
Album: Palabas
Submitted by: bogey

Intro: 

E|------------------|
B|-----5-4-0-4------|
G|------------------|
D|------------------|
A|------------------| 11x
E|------------------|
Then A-AM7-E (2x)

Verse:
 A         AM7
The doorknob smiles at me alone
E
But will I open the door again
 A            AM7          
I've seen this happening before
E
I've seen myself fall face first on the floor

Refrain:
   F#m        Am              E    B
E|-------------------------------------|
B|-------------------------------------|
G|----------------------------1----4---|
D|--4---------7---------------2----4---|
A|--4---------7---------------2----2---|
E|--2---------5------------------------|
   Crash and burn, on the floor
         F#m             Am
E|-----------------------------|
B|-----------------------------|
G|-----------------------------|
D|-------4---------------7-----|
A|-------4---------------7-----|
E|-------2---------------5-----|
   So I turn, crash and burn
[ Tab from: http://www.guitartabs.cc/tabs/s/sponge_cola/on_the_floor_tab.html ]
Chorus:
     E         B              Ab           A
E|--------------------------------------------------|
B|--------------------------------------------------|
G|---1---------4------------------------------------|
D|---2---------4--------------5------------7--------|
A|---2---------2--------------5------------7--------|
E|----------------------------4------------5--------|
   So used to lying on the floor, and I'm sinking

     E         B            Ab           A
E|------------------------------------------------|
B|------------------------------------------------|
G|---1---------4----------------------------------|
D|---2---------4------------5------------7--------|
A|---2---------2------------5------------7--------|
E|--------------------------4------------5--------|
      Unable to give anymore, and I'm sinking

(Do verse chords)
Forever envelopes my days
Gasping for air as I look for an escape
I'm drowning in a letter made to stay
I took one look away and so I turn

(Repeat refrain)
(Repeat chorus)

Bridge: (Do c.p. F#m-Am-E-B)

Adlib: B-Am

(Repeat refrain)
(Repeat chorus 2x)
Comments