Sponge Cola - Neon Chords & Tabs

 

Neon Chords & Tabs

Sponge Cola Chords & Tabs

Version: 5 Type: Tab 0 ratings
1 star 2 stars 3 stars 4 stars 5 stars
comments

Neon Tab

   
Tabbed by Renz

For Comments or you would give me a Gibson digital guitar or any other expensive
guitar, please email me at renz_sui@yahoo.com

I Tabbed this for about 2 hours and I think its accurate enough for everybody.

Intro

e|-------------------0-------------------------0---------|
B|-----3-----3-----3---3---3-----3-----3-----3---3---3---|
G|---0-----0-----0-------0-----0-----0-----0-------0-----|
D|-------------------------------------------------------|
A|-------------------------------------------------------|
E|-3-----2-----0-------------0-----2-----3---------------|

e|-------------------0-------------------------0---------|
B|-----3-----3-----3---3---3-----3-----3-----3---3---3---|
G|---0-----0-----0-------0-----0-----0-----0-------0-----|
D|-------------------------------------------------------|
A|-------------------------------------------------------|
E|-3-----2-----0-------------0-----2-----3---------------|

Verse

e|-------------------0-------------------------0----|
B|-----3-----3-----3---3---3-----3-----3-----3---3--|
G|---0-----0-----0-------0-----0-----0-----0--------|
D|--------------------------------------------------|
A|--------------------------------------------------|
E|-3-----2-----0-------------0-----2-----3----------|

e|-------------------0-----------------------0------|
B|-----3-----3-----3---3---3-----3-----3-------3----|
G|---0-----0-----0-------0-----0-----0-----0-----0--|
D|--------------------------------------------------|
A|--------------------------------------------------|
E|-3-----2-----0-------------0-----2-----3----------|

e|-------------------0-------------------------0---------|
B|-----3-----3-----3---3---3-----3-----3-----3---3---3---|
G|---0-----0-----0-------0-----0-----0-----0-------0-----|
D|-------------------------------------------------------|
A|-------------------------------------------------------|
E|-3-----2-----0-------------0-----2-----3---------------|

e|-------------------0------------------------0-----0--|
B|-----3-----3-----3---3---3-----3---3------3-3-----3--|
G|---0-----0-----0-------0-----0----------0---0-----0--|
D|--------------------------------------------0-0------|
A|--------------------------------------3-----3---3----|
E|-3-----2-----0-------------0-----2-------------------|

Prechorus

e|-------2---2---0-------0---0---0-------2---2--|
B|-----3-3---3---3-----3-3---3---3-----3-3---3--|
G|---2---2---2---0---0---0---0---0---2---2---2--|
D|-0-----0-0---0---------2---------0-----0-0----|
A|-------0---------3-----3-3---x---------0------|
E|----------------------------------------------|

e|--------------2-----2-------------------0-----0--------|
B|-------3--------3-----3-----3-----3-----3-3---3-----3--|
G|-----4---4--------4-----4-------0---0-------0---0------|
D|-----------4--------------------------2-----------2----|
A|-0-2----------------------2---3------------------------|
E|-------------------------------------------------------|
[ Tab from: http://www.guitartabs.cc/tabs/s/sponge_cola/neon_tab_ver_5.html ]
e|---------2-----2---3-3-2---2---3--|
B|-----3---------3---3-3-3---3---3--|
G|---2-------2---2---2---2-2-----0--|
D|-0-----0-----0---0----------------|
A|-----------------------------x----|
E|----------------------------------|

Chorus

e|---------3-----3---0---------0-----0-------0---2-----2--|
B|-----3-----3---3---0-----0-----0---0-------3-----3---3--|
G|---0---0-------------------0-------------4---4-----4-4--|
D|-------------0---------2---------2----------------------|
A|-----------------x-------------------0-2----------------|
E|-3-------------------0----------------------------------|

e|-----------0-----0--|
B|-----------3-3---3--|
G|-------0-------0-0--|
D|-----2---2----------|
A|-2-3----------------|
E|--------------------|

e|---------3-----3---0---------0-----0-------0---2-----2--|
B|-----3-----3---3---0-----0-----0---0-------3-----3---3--|
G|---0---0-------------------0-------------4---4-----4-4--|
D|-------------0---------2---------2----------------------|
A|-----------------x-------------------0-2----------------|
E|-3-------------------0----------------------------------|

e|-----------0-----0-----0--|
B|-----------3-3-----3---3--|
G|-------0-------0-----0-0--|
D|-----2---2----------------|
A|-2-3----------------------|
E|--------------------------|

e|---------3-----3---------------0-----0-------------0---2-----2--------|
B|-----3-----3-----3---3-----0-----0-----0---0-------3-----3-----3---3--|
G|---0---0-----------0---------0-----0-----0-------4---4-----4-----4----|
D|-------------0-----------2--------------------------------------------|
A|---------------------------------------------0-2----------------------|
E|-3---------------------0----------------------------------------------|

e|-----------0-----0--|
B|-----------3-3---3--|
G|-------0-------0-0--|
D|-----2---2----------|
A|-2-3----------------|
E|--------------------|

e|-0----------2-2--------|
B|-0-0---0----3---3---3--|
G|-0---0---0--2-----2----|
D|-2----------0----------|
A|-2----------0----------|
E|-0----------x----------|

Repeat Intro and use the plucking of intro through out 2nd Verse

Prechorus
Cadd9 - D - Dsus - D
Cadd9 - D - Bm
Cadd9 - D - Dsus - D

Chorus 
G - Em - Bm - Cadd9
G - Em - Bm - Cadd9 
G - Em - Bm - Cadd9
Em - D

Bridge 
E5 - D5 - C5 - D5
E5 - D5 - C5

Note - <> Means Natural Harmonics

e|----12-<12>------------|
B|----12------<12>-------|
G|--9--------------<12>--|
D|--9--------------------|
A|--7--------------------|
E|-----------------------|

D5 - C5 - D5
E5 - G5 - D5 - G5

Coda

E|--------2h3p2---0--|
E|------3------------|
E|----2---------2----|
E|--0----------------|
E|-------------------|

Intro Plucking til end
Comments