Sponge Cola - Neon Chords & Tabs

 

Neon Chords & Tabs

Sponge Cola Chords & Tabs

Version: 4 Type: Tab 0 ratings
1 star 2 stars 3 stars 4 stars 5 stars
comments

Neon Tab

   
Artist: Sponge Cola
Song: Neon
Album: Palabas
Tabbed by: Em Tan

eadgbe


Intro:[2X]

E|----------------------0-----------------------------0--------|
B|------3------3------3---3---3-------3------3------3---3---3--|
G|----0------0------0-------0-------0------0------0-------0----|
D|-------------------------------------------------------------|
A|-------------------------------------------------------------|
E|--3------2------0---------------0------2------3--------------|

Verse 1:

"Your smile is gently freezing..."
E|----------------------0-----------------------------0-------|
B|------3------3------3---3---3-------3------3------3---3-----|
G|----0------0------0-------0-------0------0------0-----------|
D|------------------------------------------------------------|
A|------------------------------------------------------------|
E|--3------2------0---------------0------2------3-------------|


"You're the laughter in my silence..."
E|----------------------0----------------------------0-------|
B|------3------3------3---3---3-------3------3---------3-----|
G|----0------0------0-------0-------0------0------0------0---|
D|-----------------------------------------------------------|
A|-----------------------------------------------------------|
E|--3------2------0---------------0------2------3------------|


"Green towel is soft spoken..." [what the? just got the lyrics from some site.]
E|----------------------0-----------------------------0--------|
B|------3------3------3---3---3-------3------3------3---3---3--|
G|----0------0------0-------0-------0------0------0-------0----|
D|-------------------------------------------------------------|
A|-------------------------------------------------------------|
E|--3------2------0---------------0------2------3--------------|


"The lies and empty promises..."
E|----------------------0--------------------------|
B|------3------3------3---3---3------3----3[pause]-|
G|----0------0------0-------0------0---------------|
D|-------------------------------------------------|
A|-------------------------------------------------|
E|--3------2------0--------------0------2----------|


Pre-Chorus:
[ Tab from: http://www.guitartabs.cc/tabs/s/sponge_cola/neon_tab_ver_4.html ]
 C(addD)             D
        How does it feel?

 C(addD)                        D
	How is it that I can't feel?

      Bm            C          D Dsus D
	Cause I, I need to know

Chorus:

      	     G      Em                    Bm
	Cause I, I know I can never be enough
            
	      C
	To replace your whatever
	
            G      Em                  Bm
	And I, I think it's shiny and blue

                C
	Like a dance that's see-thru
	
             G      Em                    Bm
	Cause I, I know I can never be enough
	
              C
	To replace your whatever
	
            Em
	Now everything is silent
	
            D
	And everything is still without you near


Repeat Intro [2x]



Verse 2:
	Everything about you
	The world was something new
	And i was there in the open
	Well, just to be with you
	But everytime i see the shelter
	And everytime i walk away
	You're the laughter in my silence
	The cold that fuels my day


Repeat Pre-Chorus
Repeat Chorus


Bridge:

	
     Em5          D5             C5
	And everytime i see you passing by
	
      C5                         D5
	I'll just stay here waiting for you
	
     Em5            D5                  C5
	And i will talk to myself on a lazy sunday afternoon
    	
             Em5
	And i'll still sing that prayer for you
		
      D5                                    C5
	I'll be a little bit kind enough for me
	
       C5
	While i try to be so perfect, you'll see that
	
       Em                                            D
	And nothing can compare to whatever lies out there.



	[Do Intro 4x]

	There's no one here
	There's no one here
	There's no one here
	There's no one...





comments, corrections. pigtails_16@yahoo.com
sencya na sa lyrics, nhanap ko lang sa isang site.
di ko lam kung tama. kung may kopya kayo ng tamang lyrics, makisend narin.
Comments